>
 >
Sway Your Head 1

Sway Your Head 1 Guitar Tabs

We Shot The Moon - Sway Your Head 1 chords, tabs, tablatures, lyrics

Guitar lessons | Add/correct | Request | Top 50 tabs Artists:  A B C D E F G H I J K L M N O P Q R S T U V W X Y Z 0-9

Sway Your Head 1 Guitar Tabs – We Shot The Moon

CD, Sheet music, Poster

Do you like Sway Your Head 1? Share with your friends now
ChordsChords v2TabsTabs v2Ukulele
-------------------------------------------------------------------------------
                             Sway Your Head - We Shot the Moon
-------------------------------------------------------------------------------

Tuning:Standard (Eadgbe)



Intro: Piano

Verse 1: ( only piano )
Sway your head
Move your feet
Wake yourself from the sleep
If there's a day, there's a way
You can get yourself there
Golden smile, you got style
That they can't take away

Verse 2: ( repeat 4 times, all down strokes )
e|---------------------------------------------------------------------------|
B|---------------------------------------------------------------------------|
G|----------5----------------------------------------------------------------|
D|--3-------5-------5------5-5-5---------------------------------------------|
A|--3-------3-(x4)--5------5-5-5---------------------------------------------|
E|--1-(x4)--x-------3-(x4)-3-3-3---------------------------------------------|


Pre-Chorus: ( listen to the song, all down strokes )
e|---------------------------------------------------------------------------|
B|---------------------------------------------------------------------------|
G|----------------7----------------------------------------------------------|
D|--7-7-7-5-------7----------------------------------------------------------|
A|--7-7-7-5-------5-(x5)-----------------------------------------------------|
E|--5-5-5-3-(x3)-------------------------------------------------------------|


Chorus: ( depends on strumming pattern, you can create your own strumming pattern also )
e|---------------------------------------------------------------------------|
B|---------------------------------------------------------------------------|
G|-----------5---------------------------------------------------------------|
D|--3--------5--------3-------7-------5--------7-7-7-5-----------------------|
A|--3--------3-(x11)--3-------7-------5--------7-7-7-5-----------------------|
E|--1-(x11)-----------1-(x5)--5-(x6)--3--(x4)--5-5-5-3-----------------------|



Verse 3: ( same tabs as verse 2 )
Pre-Chorus
Chorus x2




Bridge: ( listen to song, follow the drum beat, each set goes faster and louder )
e|---------------------------------------------------------------------------|
B|---------------------------------------------------------------------------|
G|---------------------------------------------------------------------------|
D|--7---9---10---12----------7-------9-------10-------12---------------------|
A|--7---9---10---12----------7-------9-------10-------12---------------------|
E|--5---7---8----10---(x2)---5-(x8)--7-(x8)--8--(x8)--10-(x5)----------------|


Post Bridge:
e|-----------------------------------|----------------------------------------|
B|-----------------------------------|----------------------------------------|
G|----------5------------------------|----------------------------------------|
D|--3-------5-------5---------(x2)---|---7-7-7-5------------------------------|
A|--3-------3-(x5)--5----------------|---7-7-7-5------------------------------|
E|--1-(x11)---------3-(x5)-----------|---5-5-5-3------------------------------|


Solo:
e|--------------------------|
B|--8-6-5-6-5---------------|
G|------------5-------------|
D|--------------------------|
A|--------------------------|
E|--------------------------|


Chorus x2
* the last chord for the chorus is G, after G add a F which is 
D|--3----|
A|--3----|
E|--1----|



| /  slide up
| \  slide down
| h  hammer-on
| p  pull-off
| ~  vibrato
| +  harmonic
| x  Mute note
===============================================================================





Comments


Popular We Shot The Moon tabs & chords
In The Blue Chords
Sway Your Head Chords
Sway Your Head 1 Chords
The Waters Edge Chords
Come Back Tabs
Welcome Home Tabs
Come Back Ukulele
In The Blue Ukulele
On Your Way Ukulele
Sway Your Head Ukulele


Song lyrics



↑ Back to top | Tablatures and chords are parodies/interpretations of the original songs. You may use it for private study, scholarship, research or language learning purposes only
© 2014 AZChords.com Contact us | Privacy policy | DMCA | Add/correct tabs | Request tabs | Top 50 tabs