» » »

Weller Paul, You Do Something To Me Tabs (ver.1)

Artists:  A B C D E F G H I J K L M N O P Q R S T U V W X Y Z # 

You Do Something To Me Tabs (ver.1)

Weller Paul Tabs
 Rating:
4/5 (4 votes)
You Do Something To Me lessons Tabs too difficult? Try these video lessons and learn fast
                The Modfather from STANLEY ROAD



With overdrive and reverb for that weller feel

e---------------------------------------------------------------------------------
b----(17)b15--12h15---------------------------------------------------------------
g--------------------14\---------------------12--------14b15b14--12----------12---
d-----------------------------12-12-12-12/14----(14)----------------14-12/14------
a---------------------------------------------------------------------------------
e---------------------------------------------------------------------------------

e------------------------------------------------12----17-15-17-15-17b18b17-------
b--------------------------------------15-12-15-----------------------------------
g--14b1514-14b15b14h12-----------12-14--------------------------------------------
d----------------------14---------------------------------------------------------
a---------------------------------------------------------------------------------
e---------------------------------------------------------------------------------


e---17b18b17--15-17-15------------------------------------------------------------
b----------------------17-15-17-------12-15-12-15-15b17b15-----12b13b12-----------
g----------------------------------14-----------------------------------14-12~~~--
d---------------------------------------------------------------------------------
a---------------------------------------------------------------------------------
e---------------------------------------------------------------------------------
Em          D           Am7    Bm7           Em
  You do something to me - something deep inside
Em                    D   Am7      Bm7             Em
  I´m hanging on the wire - for a love I´ll never find
Em                    D     Am7     Bm7          Em
  You do something wonderful - the chase it all away
Em             D    Am7      Bm7             Em
  Mixing my emotions - that throws me back again

                 C7/G Am7    D11             Em
  Hanging on the wire, I´m waiting for the change
C7                         G             A7                       C         D11  Em
  I´m dancing through the fire, just to catch a flame - an´ feel real again

Em  D  Am7  Bm7  Em
Em  D  Am7  Bm7  Em

                 C7/G Am7    D11             Em
  Hanging on the wire, I´m waiting for the change
C7                         G             A7                       C         D11  Em
  I´m dancing through the fire, just to catch a flame - an´ feel real again

Em             D         Am7  Bm7           Em
  You do something to me - somewhere deep inside
Em                    D     Am7   Bm7            Em
  I´m hoping to get close to - a peace I cannot find

                      C7/G     Am7          D11     Em
  Dancing through the fire -yeah - just to catch a flame
C7              G             A7                C7          D11  Em
  Just to get close to, just close enough - to tell you that...

Em             D         Am7  Bm7           Em
  You do something to me - something deep inside
            
Submit corrections

comments powered by Disqus
↑ Back to top | Weller Paul Tabs for You Do Something To Me. Lyrics for acoustic guitar and electric guitar. Tablatures and chords are parodies/interpretations of the original songs. You may use it for private study, scholarship, research or language learning purposes only