» » »

Weird Al Yankovic, Pretty Fly (For A Rabbi) Bass tabs (ver.2)

Artists:  A B C D E F G H I J K L M N O P Q R S T U V W X Y Z # 

Pretty Fly (For A Rabbi) Bass tabs (ver.2)

Weird Al Yankovic Tabs
 Rating:
4/5 (4 votes)
Pretty Fly (For A Rabbi) lessons Tabs too difficult? Try these video lessons and learn fast
                G------------------------------------------------------------------------------------|
D-----------------2-0------------------2-0------------------2-0------------------2-0-|
A-2--2---0-2-2--2------2--2---0-2-2--2------2--2---0-2-2--2------2--2---0-2-2--2-----|
E------2--------------------2--------------------2--------------------2--------------|

G------------------------------------------------------------------------------------|
D-----------------2-0------------------2-0------------------2-0------------------2-0-|
A-2--2---0-2-2--2------2--2---0-2-2--2------2--2---0-2-2--2------2--2---0-2-2--2-----|
E------2--------------------2--------------------2--------------------2--------------|

G------------------------------------------------------------------------------------------|
D-----3h4-3h4-----3h4-3h4--------------------------3h4-3h4-----3h4-3h4---------------------|
A-2--2--------2--2---------5--5-0-5--7777-5-0--2--2--------2--2---------5--5-0-5--7777-5-0-|
E------------------------------------------------------------------------------------------|

G---------------------------------------------|
D-----3h4-3h4-----3h4-3h4---------------------|
A-2--2--------2--2---------5--5-0-5--7777-5-0-|
E---------------------------------------------|

G--------------------------------------|
D-5--5---5--7--7---7-----4-3---0-2-3---|
A------5---------7---2-2-----2-------2-|
E--------------------------------------|

G------------------------------------------------------------------------------------|
D-----------------2-0------------------2-0------------------2-0------------------2-0-|
A-2--2---0-2-2--2------2--2---0-2-2--2------2--2---0-2-2--2------2--2---0-2-2--2-----|
E------2--------------------2--------------------2--------------------2--------------|

G------------------------------------------------------------------------------------|
D-----------------2-0------------------2-0------------------2-0------------------2-0-|
A-2--2---0-2-2--2------2--2---0-2-2--2------2--2---0-2-2--2------2--2---0-2-2--2-----|
E------2--------------------2--------------------2--------------------2--------------|

G------------------------------------------------------------------------------------------|
D-----3h4-3h4-----3h4-3h4--------------------------3h4-3h4-----3h4-3h4---------------------|
A-2--2--------2--2---------5--5-0-5--7777-5-0--2--2--------2--2---------5--5-0-5--7777-5-0-|
E------------------------------------------------------------------------------------------|

G---------------------------------------------|
D-----3h4-3h4-----3h4-3h4---------------------|
A-2--2--------2--2---------5--5-0-5--7777-5-0-|
E---------------------------------------------|

G--------------------------------------|
D-5--5---5--7--7---7-----4-3---0-2-3---|
A------5---------7---2-2-----2-------2-|
E--------------------------------------|

G---------------4--------|
D--------------------2-0-|
A-2--02--02--02----0-----|
E------------------------|

G---------------4-------------|
D-----------------4-3-4-2-0---|
A-2--02--02--02-------------2-|
E-----------------------------|

G------------------------------------------------------------------------------------|
D-----------------2-0------------------2-0------------------2-0------------------2-0-|
A-2--2---0-2-2--2------2--2---0-2-2--2------2--2---0-2-2--2------2--2---0-2-2--2-----|
E------2--------------------2--------------------2--------------------2--------------|

G------------------------------------------------------------------------------------------|
D-----3h4-3h4-----3h4-3h4--------------------------3h4-3h4-----3h4-3h4---------------------|
A-2--2--------2--2---------5--5-0-5--7777-5-0--2--2--------2--2---------5--5-0-5--7777-5-0-|
E------------------------------------------------------------------------------------------|

G---------------------------------------------|
D-----3h4-3h4-----3h4-3h4---------------------|
A-2--2--------2--2---------5--5-0-5--7777-5-0-|
E---------------------------------------------|

G------------------------------------------------------------|
D-5--5---5--7--7---7--5--5---5--7--7---7--5--5---5--7--7---7-|
A------5---------7---------5---------7---------5---------7---|
E------------------------------------------------------------|

G-------------------|
D-----4-3---0-2-3---|
A-2-2-----2-------2-|
E-------------------|
            
Submit corrections

comments powered by Disqus
↑ Back to top | Weird Al Yankovic Bass for Pretty Fly (For A Rabbi). Lyrics for acoustic guitar and electric guitar. Tablatures and chords are parodies/interpretations of the original songs. You may use it for private study, scholarship, research or language learning purposes only