» » »

Miss Morgue Bass tabs (ver.1)

Artists:  A B C D E F G H I J K L M N O P Q R S T U V W X Y Z # 

Miss Morgue Bass tabs (ver.1)

Wednesday 13
Rating:
0/5 (0 votes)

Hard to play? Try these video lessons and learn fast.
                -----------------------------------------------------------------------------
                             Miss Morgue - Wednesday 13
-----------------------------------------------------------------------------

Intro:

F|---------------------------------------------------------------|
C|---------------------------------------------------------------|
G|---------------------------------------------------------------|
C|-7~--5~--4~--2~--222222----------------------------------------|

F|---------------------------------------------------------------|
C|---------------------------------------------------------------|
G|---------------------------------------------------------------|
C|-7-77777777(x2)-5-55555555(x2)-4-44444444(x2)-2-22222222(x2)---|(x2)

Verse:

F|---------------------------------------------------------------|
C|---------------------------------------------------------------|
G|---------------------------------------------------------------|
C|-7-77777777(x2)-5-55555555(x2)-4-44444444(x2)-2-22222222(x2)---|(x2)

Chorus:

F|---------------------------------------------------------------|
C|---------------------------------------------------------------|
G|---------------------------------------------------------------|
C|-7-77777777(x2)-5-55555555(x2)-4-44444444(x2)-2-22222222(x2)---|(x2)

Post Chorus:

F|---------------------------------------------------------------|
C|---------------------------------------------------------------|
G|---------------------------------------------------------------|
C|-0~--5~--0~--4-2--0~--5~-77777777(x2)--------------------------|

Verse 2 like the first one.
Chorus 2 like the first one.
Post chorus 2 like the first one.

Solo:

F|----------------------------------------------------------------|
C|----------------------------------------------------------------|
G|----------------------------------------------------------------|
C|-7-77777777(x2)-5-55555555(x2)-4-44444444(x2)-2-22222222(x2)----|

F|----------------------------------------------------------------|
C|----------------------------------------------------------------|
G|----------------------------------------------------------------|
C|-7~--5~--4~--22222222(x2)---------------------------------------|

The last chorus is like the others.

Ending:

F|-----------------------------------------------------------------|
C|-----------------------------------------------------------------|
G|-----------------------------------------------------------------|
C|-0~--5~--0~--4-2-------------------------------------------------|(x4)

F|-----------------------------------------------------------------|
C|-----------------------------------------------------------------|
G|-----------------------------------------------------------------|
C|-0~--5~--0~--4-2--0~---------------------------------------------|
            
Hard to play? Try these video lessons and learn fast. | Correct




comments powered by Disqus
↑ Back to top | Tablatures and chords are parodies/interpretations of the original songs. You may use it for private study, scholarship, research or language learning purposes only