» » »

Miss Morgue Tabs (ver.1)

Artists:  A B C D E F G H I J K L M N O P Q R S T U V W X Y Z # 

Miss Morgue Tabs (ver.1)

Wednesday 13
Rating:
0/5 (0 votes)

Hard to play? Try these video lessons and learn fast.
                [ Intro ]

D----------------------------------------|
A----------------------------------------|
F----------------------------------------|
C---7-----5-----4----2-----2-2-2-2-2-2-2-|
G---7-----5-----4----2-----2-2-2-2-2-2-2-|
C---7-----5-----4----2-----2-2-2-2-2-2-2-|

[ Riff 1 - 0:12-0:34 ]


D-----------------------------------|
A-----------------------------------|
F-----------------------------------|
C---7--7-7--7--7-7--7--7-7--7-7-7-7-|
G---7--7-7--7--7-7--7--7-7--7-7-7-7-|
C---7--7-7--7--7-7--7--7-7--7-7-7-7-|

D-----------------------------------|
A-----------------------------------|
F-----------------------------------|
C---5--5-5--5--5-5--5--5-5--5-5-5-5-|
G---5--5-5--5--5-5--5--5-5--5-5-5-5-|
C---5--5-5--5--5-5--5--5-5--5-5-5-5-|

D----------------------------------------------------|
A----------------------------------------------------|
F----------------------------------------------------|
C---4--4-4--4--4-4--4--4-4--4-4-4-4--2---2-2-2-2-2-2-|
G---4--4-4--4--4-4--4--4-4--4-4-4-4--2---2-2-2-2-2-2-|
C---4--4-4--4--4-4--4--4-4--4-4-4-4--2---2-2-2-2-2-2-|

[ Verse ]

D---------------------------------------|
A---------------------------------------|
F---------------------------------------|
C---7--x---------------5--x-------------|
G---7--x---------------5--x-------------|
C---7--x--(mute x16)---5--x--(mute x 16-|

D---------------------------------------|
A---------------------------------------|
F---------------------------------------|
C---4--x---------------2--x-------------|
G---4--x---------------2--x-------------|
C---4--x--(mute x16)---2--x--(mute x 16-|

[ Chorus ]

D------------------------------------------|
A------------------------------------------|
F------------------------------------------|
C----7---7---7---7-7-7---5---5---5---5-5-5-|
G----7---7---7---7-7-7---5---5---5---5-5-5-|
C----7---7---7---7-7-7---5---5---5---5-5-5-|

D-------------------------------------------|
A-------------------------------------------|
F-------------------------------------------|
C----4---4---4---4-4-4---2----2-2-2-2-2-2---|
G----4---4---4---4-4-4---2----2-2-2-2-2-2---|
C----4---4---4---4-4-4---2----2-2-2-2-2-2---| (repeat 2x)

D------------------------------------------|
A------------------------------------------|
F------------------------------------------|
C----0----5----0---4--2---0---5------------|
G----0----5----0---4--2---0---5------------|
C----0----5----0---4--2---0---5------------|

D---------------------------------------------|
A---------------------------------------------|
F---------------------------------------------|
C----5/7-7-7-7-7-7-7-7-7-7-7-7-7-7-7-7-7--5/7-|
G----5/7-7-7-7-7-7-7-7-7-7-7-7-7-7-7-7-7--5/7-|
C----5/7-7-7-7-7-7-7-7-7-7-7-7-7-7-7-7-7--5/7-|

[ Verse ]

D---------------------------------------|
A---------------------------------------|
F---------------------------------------|
C------x---------------5--x-------------|
G------x---------------5--x-------------|
C------x--(mute x16)---5--x--(mute x 16-|

D---------------------------------------|
A---------------------------------------|
F---------------------------------------|
C---4--x---------------2--x-------------|
G---4--x---------------2--x-------------|
C---4--x--(mute x16)---2--x--(mute x 16-|

D---------------------------------------|
A---------------------------------------|
F---------------------------------------|
C---7--x---------------5--x-------------|
G---7--x---------------5--x-------------|
C---7--x--(mute x16)---5--x--(mute x 16-|

D---------------------------------------|
A---------------------------------------|
F---------------------------------------|
C---4--x---------------2--x-------------|
G---4--x---------------2--x-------------|
C---4--x--(mute x16)---2--x--(mute x 16-|

[Chorus]

[ Riff 2 -  2:21-2:44 ]

D-----------------------------------|
A-----------------------------------|
F-----------------------------------|
C---7--7-7--7--7-7--7--7-7--7-7-7-7-|
G---7--7-7--7--7-7--7--7-7--7-7-7-7-|
C---7--7-7--7--7-7--7--7-7--7-7-7-7-|

D-----------------------------------|
A-----------------------------------|
F-----------------------------------|
C---5--5-5--5--5-5--5--5-5--5-5-5-5-|
G---5--5-5--5--5-5--5--5-5--5-5-5-5-|
C---5--5-5--5--5-5--5--5-5--5-5-5-5-|

D-----------------------------------|
A-----------------------------------|
F-----------------------------------|
C---4--4-4--4--4-4--4--4-4--4-4-4-4-|
G---4--4-4--4--4-4--4--4-4--4-4-4-4-|
C---4--4-4--4--4-4--4--4-4--4-4-4-4-|

D--------------------------------------|
A--------------------------------------|
F--------------------------------------|
C---2--2-2--2--2-2--2--2-2--2-2-2-2--7-|
G---2--2-2--2--2-2--2--2-2--2-2-2-2--7-|
C---2--2-2--2--2-2--2--2-2--2-2-2-2--7-|

D-----------------------|
A-----------------------|
F-----------------------|
C---5-----4----2--------|
G---5-----4----2--------|
C---5-----4----2-(x16)--|

[Chorus]

[ Outro - 3:08 ]

D-----------------------------------------|
A-----------------------------------------|
F-----------------------------------------|
C----0----5----0---4--2----------------0--|
G----0----5----0---4--2----------------0--|
C----0----5----0---4--2---(repeat 4x)--0--|
            
Hard to play? Try these video lessons and learn fast. | Correct




comments powered by Disqus
↑ Back to top | Tablatures and chords are parodies/interpretations of the original songs. You may use it for private study, scholarship, research or language learning purposes only