» » »

Happily Ever Cadaver Tabs (ver.2)

Artists:  A B C D E F G H I J K L M N O P Q R S T U V W X Y Z # 

Happily Ever Cadaver Tabs (ver.2)

Wednesday 13
Rating:
0/5 (0 votes)

Hard to play? Try these video lessons and learn fast.
                [Intro/Verse]

D---------------------------------|
A---------------------------------|
F---------------------------------|
C---------------------------------|
G--11--11--11--11--11--11--11--11-|
C--11--11--11--11--11--11--11--1--|1(x6)

D--------------------------------------------------------|
A--------------------------------------------------------|
F--------------------------------------------------------|
C--------------------------------------------------------|
G---6--6--6--6--4--4--4--4--11--11--11--11-6-6-6-6-6-6-6-|
C---6--6--6--6--4--4--4--4--11--11--11--11-6-6-6-6-6-6-6-|


D-------------------------------------------------------------------------|
A-------------------------------------------------------------------------|
F-------------------------------------------------------------------------|
C--11-------------------------------6---------4---------11--------6-------|
G--11-------------------------------6---------4---------11--------6-------|
C--11--(repeat as much as you hear)-6--(same)-4-(same)--11-(same)-6-------|(x8)

[Pre-Chorus]

 Let me wipe those maggots from your eyes..

D-----------------------------------------------------------------------|
A-----------------------------------------------------------------------|
F-----------------------------------------------------------------------|
C--10-10-10--10-10-10--10-10-10--10-10-10---8-8-8--8-8-8--8-8-8--8-8-8--|
G--8--8--8---8--8--8---8--8--8---8--8--8----6-6-6--6-6-6--6-6-6--6-6-6--|
C-----------------------------------------------------------------------|

D-----------------------------------------------------------------------|
A-----------------------------------------------------------------------|
F-----------------------------------------------------------------------|
C--11-11-11--11-11-11--11-11-11--11-11-11---6-6-6--6-6-6--6-6-6--6-6-6--|
G--9--9--9---9--9--9---9--9--9---9--9--9----4-4-4--4-4-4--4-4-4--4-4-4--|
C-----------------------------------------------------------------------|

D-----------------------------------------------------------------------|
A-----------------------------------------------------------------------|
F-----------------------------------------------------------------------|
C--10-10-10--10-10-10--10-10-10--10-10-10---8-8-8--8-8-8--8-8-8--8-8-8--|
G--8--8--8---8--8--8---8--8--8---8--8--8----6-6-6--6-6-6--6-6-6--6-6-6--|
C-----------------------------------------------------------------------|

D-----------------------------------------------------------------------|
A-----------------------------------------------------------------------|
F-----------------------------------------------------------------------|
C--11-11-11--11-11-11--11-11-11--11-11-11---13-13-13-13-13-13-13-13-13--|
G--9--9--9---9--9--9---9--9--9---9--9--9----11-11-11-11-11-11-11-11-11--|
C-----------------------------------------------------------------------|


[Chorus]

D-------------------------------------------------------------------------|
A-------------------------------------------------------------------------|
F-------------------------------------------------------------------------|
C--11-------------------------------6---------4---------11--------6-------|
G--11-------------------------------6---------4---------11--------6-------|
C--11--(repeat as much as you hear)-6--(same)-4-(same)--11-(same)-6-------|(x8)

[Outro]

D--------------------------------     ----------|
A--------------------------------     ----------|
F--------------------------------     ----------|
C--------------------------------     ----------|
G--11--11--11--11--11--11--11--11     11----11--|
C--11--11--11--11--11--11--11--11(x4) 11----11--|
            
Hard to play? Try these video lessons and learn fast. | Correct




comments powered by Disqus
↑ Back to top | Tablatures and chords are parodies/interpretations of the original songs. You may use it for private study, scholarship, research or language learning purposes only