» » »

We Came As Romans, To Move On Is To Grow Bass tabs (ver.1)

Artists:  A B C D E F G H I J K L M N O P Q R S T U V W X Y Z # 

To Move On Is To Grow Bass tabs (ver.1)

We Came As Romans Tabs
 Rating:
4/5 (4 votes)
To Move On Is To Grow lessons Tabs too difficult? Try these video lessons and learn fast
                0:06
F|--------------------------|
C|o------------------------o|
G|o------------------------o|
C|--5(x8)--8(x8)--3(x16)----|

0:19
F|----------------------------------------------|---|
C|o--------------------------------------------o|---|
G|o-----------------------------------75-35-10-o|---|
C|--555-555-55-87-108-1312-555-555-55-----------|-5-|

0:34 x4
F|-------------------------|
C|o------------------------|
G|o-----------------------o|
C|--5553-5-5-555-8-5-3-55--|

0:48 x4
F|--------------------------|
C|o------------------------o|
G|o------------------------o|
C|--5(x8)--8(x8)--3(x16)----|

1:12
F|------------------------------------------------|-------------------|
C|o----------------------------------------------o|-------------------|
G|o----------------------1113--------------------o|-------------------|
C|--5-3-55--555-8-5-3355------11-111-873-3333-33--|-5553-5-5-5558-5-5-|

1:29
F|----------------------------|
C|o--------------------------o|
G|o--------------------------o|
C|--5-3-55~~~5-3-5-7-8-3-5-1--|

1:43
F|---------------------------------------------|---|
C|---------------------------------------------|---|
G|---------------------------------------------|---|
C|-5553-5-5--555-555-55-333-333--33-111-11-8-7-|-5-|

2:03 x4
F|--------------------------|
C|o------------------------o|
G|o------------------------o|
C|--5(x8)--8(x8)--3(x16)----|

2;28
F|----------------------------------------------|---|
C|o--------------------------------------------o|---|
G|o-----------------------------------75-35-10-o|---|
C|--555-555-55-87-108-1312-555-555-55-----------|-5-|

2:49
F|---------------------------------------------------------------------|
C|---------------------------------------------------------------------|
G|---------------------------------------------------------------------|
C|-0003-0-0-00012-0-0-0008-003-0-0-00012-0-0-0008-0-0000-0-0-0000-0-00-|

2:58
F|---------------------------------------------------------------------|
C|---------------------------------------------------------------------|
G|---------------------------------------------------------------------|
C|-0000-0-0-0000-0-0-0000-0-00-000-000-000-000-0-000-0-0-0000-0-0-0000-|

3;08
F|-----------------------------------------------------|
C|-----------------------------------------------------|
G|-----------------------------------------------------|
C|-0-0000-0-0-0000-0-0-0000-0-0000-0-0-0000-0-0-0000-0-|

F|-----------------------------|----|
C|o---------------------------o|----|
G|o---------------------------o|----|
C|--5-3-55~~~~5-3-5-7-8-3-5-1--|-5~-|
            
Submit corrections

comments powered by Disqus
↑ Back to top | We Came As Romans Bass for To Move On Is To Grow. Lyrics for acoustic guitar and electric guitar. Tablatures and chords are parodies/interpretations of the original songs. You may use it for private study, scholarship, research or language learning purposes only