>
 >
Intentions

Intentions Guitar Tabs

We Came As Romans - Intentions chords, tabs, tablatures, lyrics

Guitar lessons | Add/correct | Request | Top 50 tabs Artists:  A B C D E F G H I J K L M N O P Q R S T U V W X Y Z 0-9

Intentions Guitar Tabs – We Came As Romans

CD, Sheet music, Poster

Do you like Intentions? Share with your friends now
Tabs
-------------------------------------------------------------------------------
                             INTENTIONS- We Came As Romans
-------------------------------------------------------------------------------
  Amazing song, Amazing band

INTRO

 GTR. 1
|---------------------------------------|
|---------------------------------------|
|---------6p0----------------6p0--------|
|-4p0-7p0-----7p0----4p0-7p0-----7-(4x)-|
|---------------------------------------|
|---------------------------------------|

|-9p0-10p0-12p0-10p0-9p0-10p0-12p0-10(8x)--|
|-------------------------------------------|
|-------------------------------------------|
|-------------------------------------------|
|-------------------------------------------|
|-------------------------------------------|

 GTR. 2
|---------------------------------------------------------------------------|
|---------------------------------------------------------------------------|
|---------------------------------------------------------------------------|
|-4----4-4---7-4-0----0-0---0-2---------------------------------------------|
|-4----4-4---7-4-0----0-0---0-2---(12x)-------------------------------------|
|-4----4-4---7-4-0----0-0---0-2---------------------------------------------|

VERSE

 BOTH
|---------------------------------------------------------------------------|
|---------------------------------------------------------------------------|
|----------------------6p0-4h6-----------------------6p0-4h6----------------|
|------------------7p0---------------------------7p0------------------------|
|-44444-7777-22222--------------44444-7777-22222----------------------------|
|-44444-7777-22222--------------44444-7777-22222----------------------------|
  ..... .... .....              ..... .... .....
|---------------------------------------------------------------------------|
|---------------------------------------------------------------------------|
|------------------------6p0-4h6------------------------6p0-4h6-------------|
|--------------------7p0----------------------------7p0---------------------|
|-44444---------2222-------------44444---------2222-------------------------|
|-44444-7p0-2p0-2222-------------44444-7p0-2p0-2222-------------------------|
  .....         ....             .....         ....
|---------------------------------------------------------------------------|
|-------------3-3-----------------------------------------------------------|
|-------------6-6-----------------------------------------------------------|
|---7p0-6h7---------7p0-6h7-------------------------------------------------|
|-4---------4-----4---------4----------(4x)---------------------------------|
|-4---------4-----4---------4-004p04----------------------------------------|
  .         .     .         .
CHORUS


 GTR. 1 (listen for the pattern)
|---------------------------------------------------------------------------|
|---------------------------------------------------------------------------|
|-14--11--13--14--16----14--16--11-13--14--16-------------------------------|
|------------------------------------------------(2x)-----------------------|
|-12--9---11--12--14----12--14--9--11--12--14-------------------------------|
|---------------------------------------------------------------------------|

 GTR. 2
|---------------------------------------------0-~---------------------------|
|---------------------------------------------0-~---------------------------|
|---------------------------------------------0-~---------------------------|
|-4444444444444444-0000000000000000-----------0-~---------------------------|
|-4444444444444444-0000000000000000----(4x)---0-~---------------------------|
|-4444444444444444-0000000000000000-----------0-~---------------------------|

 BREAKDOWN
|---------------------------------------------------------------------------|
|---------------------------------------------------------------------------|
|---------------------------------------------------------------------------|
|---------------------------------------------------------------------------|
|-00000-----000~-0000-0000000-0000~-000(2X)--------------------------------|
|-00000-0-0-000~-0000-0000000-0000~-000-------------------------------------|
  .....     ... .... ....... .... ...
|---------------------------------------------------------------------------|
|---------------------------------------------------------------------------|
|---------------------------------------------------------------------------|
|-000000------------0000--000000------------0000-----(2X)-------------------|
|-000000------------0000--000000------------0000----------------------------|
  ......            ....  ......            ....
|---------------------------------------------------------------------------|
|---10p0-9h10-------10p0-9h10-----------------------------------------------|
|---------------------------------------------------------------------------|
|---------------------------------------------------------------------------|
|-0-----------00000-----------000-000-----(2x)------------------------------|
|-0-----------00000-----------000-000---------------------------------------|
  .           .....           ... ...
 
End it with the CHORUS




************************************

| h   hammer-on
| p   pull-off
| ~   vibrato
| .   Mute note

************************************





Comments


Popular We Came As Romans tabs & chords
Beliefs Bass Tabs
Beliefs Tabs
Broken Statues Intro 2 Tabs
Fade Away Tabs
Just Keep Breathing Intro Tabs
Shapes Tabs
Shapes 1 Tabs
To Move On Is To Grow Tabs
To Plant A Seed Tabs
Understanding What Weve Grown To Be Tabs


Song lyrics



↑ Back to top | Tablatures and chords are parodies/interpretations of the original songs. You may use it for private study, scholarship, research or language learning purposes only
© 2014 AZChords.com Contact us | Privacy policy | DMCA | Add/correct tabs | Request tabs | Top 50 tabs