» » »

Weatherbox, Heavy Map Tabs (ver.1)

Artists:  A B C D E F G H I J K L M N O P Q R S T U V W X Y Z # 

Heavy Map Tabs (ver.1)

Weatherbox Tabs
 Rating:
4/5 (4 votes)
Heavy Map lessons Tabs too difficult? Try these video lessons and learn fast
                Weatherbox
"Heavy Map"
Follow the Rattle of the Afghan Guitar

Tuning: D A D Gb A D

This is not only my favorite Weatherbox song of all time, but also my favorite
song by any band of all time. I am so happy that I was able to figure this one
out by jamming along to it. I am now passing the awesomeness on to you, fellow
Weatherboxer. Enjoy!


Intro: (x2)
"I made a map..."
(Strum softly as the intro builds up)
D --0--0--0--0--0--0--0--0----0--0--0--0----0--0--0--0--|
A --0--0--0--0--0--0--0--0----0--0--0--0----0--0--0--0--|
Gb--3--3--3--3--3--3--3--3----7--7--7--7----5--5--5--5--|
D --0--0--0--0--0--0--0--0----0--0--0--0----0--0--0--0--|
A ------------------------------------------------------|
D ------------------------------------------------------|

Intro 2: (x2)
"I was sucked inside..."

D --0~----0--0--0--0----0--0--0--0----0~--------|
A --0~----0--0--0--0----0--0--0--0----0~--------|
Gb--3~----7--7--7--7----5--5--5--5----3~--------|
D --0~----0--0--0--0----0--0--0--0----0~--------|
A --0~--------------------------------0~--------|
D --0~--------------------------------0~--------|


Verse 1: (x2)
"A day, a day, aged a day..."

D --------------------------------------------------------------|
A -----------0-------------0----------------0--0----------------|
Gb-----------3-------------3----------------3--3----------3--3--|
D --0--0--0--0----0--0--0--0--(x4)----4--4--4--4----2--2--2--2--|
A --0--0--0--0----0--0--0--0----------4--4--4--4----2--2--2--2--|
D --0--0--0--0----0--0--0--0----------4--4--4--4----2--2--2--2--|


Solo:
"I hadn't aged a day, woah..."

D -----------------------------------------------------|
A --9--------------------------------------------------|
Gb--------------8--7--7--(x3)----3--3--3--3/7--10--10--|
D -----7/9\7/9-----------------------------------------|
A -----------------------------------------------------|
D -----------------------------------------------------|

Solo (cont.):

D --------------------------------------------|
A --------------------------------------------|
Gb--------------------------------------------|
D --0--0--0----0--0--0----0--0--0----0--0--0--|
A --0--0--0----0--0--0----0--0--0----0--0--0--|
D --0--0--0----0--0--0----0--0--0----0--0--0--|
    .  .  .    .  .  .    .  .  .    .  .  .


Verse 2: (x2)
"I searched the universe..."

D --------------------------------------------------------------|
A -----------0-------------0----------------0--0----------------|
Gb-----------3-------------3----------------3--3----------3--3--|
D --0--0--0--0----0--0--0--0--(x4)----4--4--4--4----2--2--2--2--|
A --0--0--0--0----0--0--0--0----------4--4--4--4----2--2--2--2--|
D --0--0--0--0----0--0--0--0----------4--4--4--4----2--2--2--2--|

Verse 3:
"Of mine, of mine..."

D--------------------------------------------------|
A --0--0--0--*7----------------0--0----------------|
Gb--3--3--3--*7--(x3)----------3--3----------3--3--|
D --0--0--0--*7----------4--4--4--4----2--2--2--2--|
A --0--0--0---0----------4--4--4--4----2--2--2--2--|
D --0--0--0---0----------4--4--4--4----2--2--2--2--|

Solo 2:
"Never been a friend of mine..."

D -----------------------------------------------------|
A --9--------------------------------------------------|
Gb--------------8--7--7--(x3)----3--3--3--3/7--10--10--|
D -----7/9\7/9-----------------------------------------|
A -----------------------------------------------------|
D -----------------------------------------------------|


Bridge 1:
"Friends of mine! We're taking sides!..."

D --------------------------------------------|
A --------------------------------------------|
Gb--------------------------------------------|
D --4--4--4----4--0--2----4--0--2----2--2--2--|
A --4--4--4----4--0--2----4--0--2----2--2--2--|
D --4--4--4----4--0--2----4--0--2----2--2--2--|

Bridge 1 (cont.):
"Friend of mine..."

D --------------------------------------------0--0--0--0---|
A --------------------------------------------0--0--0--0---|
Gb--------------------------------------------3--3--3--3---|
D --4--0--2----4--0--2----4--0--2----4--0--2--0--0--0--0---|
A --4--0--2----4--0--2----4--0--2----4--0--2--0--0--0--0---|
D --4--0--2----4--0--2----4--0--2----4--0--2--0--0--0--0---|

Bridge 1 (cont.):
"Friend of mine, take a side, left to right..."

D -----------0--0--0--0--------|
A -----------0--0--0--0--------|
Gb-----------3--3--3--3--(x8)--|
D --4--0--2--0--0--0--0--------|
A --4--0--2--0--0--0--0--------|
D --4--0--2--0--0--0--0--------|


Bridge 2:
"If you were looking in the valley..."

D ----------------------------------------------|
A --7----7----12----12----7----7----12----12----|
Gb--7----7----12----12----7----7----12----12----|
D --7----7----12----12----7----7----12----12----|
A ----------------------------------------------|
D ----------------------------------------------|

Bride 2 (cont.):
"I stay up here for fear of angry kids..."

D --------------------------------------------------------|
A --------------------------------------------------------|
Gb--------------------------------------------------------|
D --4--4--4--4----2--2--2--2--2--2--2--2----0--0--0--0----|
A --4--4--4--4----2--2--2--2--2--2--2--2----0--0--0--0----|
D --4--4--4--4----2--2--2--2--2--2--2--2----0--0--0--0----|

Bridge 2 (cont.):
"But if you didn't like that one..."

D ----------------------------------------------|
A --7----7----12----12----7----7----12----12----|
Gb--7----7----12----12----7----7----12----12----|
D --7----7----12----12----7----7----12----12----|
A ----------------------------------------------|
D ----------------------------------------------|

Bridge 2 (cont.):
"I stay up here for fear of murdering..."

D --------------------------------------------------------|
A --------------------------------------------------------|
Gb--------------------------------------------------------|
D --4--4--4--4----2--2--2--2--2--2--2--2----0--0--0--0----|
A --4--4--4--4----2--2--2--2--2--2--2--2----0--0--0--0----|
D --4--4--4--4----2--2--2--2--2--2--2--2----0--0--0--0----|

Bridge 2 (cont.)
"If you listen you'll hear me moan..."

D --------------------------------------------|
A --------------------------------------------|
Gb--------------------------------------------|
D --4--4--4--4----2--2--2--2----0--0--0--0----|
A --4--4--4--4----2--2--2--2----0--0--0--0----|
D --4--4--4--4----2--2--2--2----0--0--0--0----|

Bridge 2 (cont.):
"I still!"

D ----------------------------|
A ----------------------------|
Gb----------------------------|
D --0--4--0--4--0--2--0--2----|
A --0--4--0--4--0--2--0--2----|
D --0--4--0--4--0--2--0--2----|


Bridge 3:
"Wonder where I wander......But I'm holy..."

D ---------------------|----------------------|
A ----------*7---------|--*7------------------|
Gb------*7------(x16)--|------*7------(x4)----|
D --*7-----------------|----------*7----------|
A ---------------------|----------------------|
D ---------------------|----------------------|


Bridge 4: (x8)
"I'm in the cave still!..."

D --0--0--0---0---0--0--0---0----|
A --0--0--0---0---0--0--0---0----|
Gb--10/12\10--10--10\12\10--3----|
D --0--0--0---0---0--0--0---0----|
A --0--0--0---0---0--0--0---0----|
D --0--0--0---0---0--0--0---0----|

Bridge 4 (cont.):
"I'm, still, still holy, still caving!..."

D ----------------------------------0--0--0--0--0--0--0--0--------|
A ----------------------------------0--0--0--0--0--0--0--0--------|
Gb----------------------------------3--3--3--3--3--3--3--3--------|
D --2--2--2--2--2--2--2--2--(x2)----0--0--0--0--0--0--0--0--(x4)--|
A --2--2--2--2--2--2--2--2----------0--0--0--0--0--0--0--0--------|
D --2--2--2--2--2--2--2--2----------0--0--0--0--0--0--0--0--------|


Outro: (x4)

D --------------------------0~---------------------|
A --------------------------0~---------------------|
Gb--------------------------3~--(random noise!)----|
D --0--2--0--2--0--4--0--4--0~---------------------|
A --0--2--0--2--0--4--0--4--0~---------------------|
D --0--2--0--2--0--4--0--4--0~---------------------|


There is really no "verse/chorus" scheme to this song so you'll have
to work through the parts until you memorize them all. I put them all
in order for you so just take it one part at a time and you should be
fine. As always, please feel free to rate, correct, and comment!


KEY:

/ - Slide up

\ - Slide down

* - Harmonic

~ - Let ring

. - Palm mute
            
Submit corrections

comments powered by Disqus
↑ Back to top | Weatherbox Tabs for Heavy Map. Lyrics for acoustic guitar and electric guitar. Tablatures and chords are parodies/interpretations of the original songs. You may use it for private study, scholarship, research or language learning purposes only