» » »

That Mann Tabs (ver.1)

Artists:  A B C D E F G H I J K L M N O P Q R S T U V W X Y Z # 

That Mann Tabs (ver.1)

Weatherbox
Rating:
0/5 (0 votes)

Hard to play? Try these video lessons and learn fast.
                -------------------------------------------------------------------------------
                             That M.A.N.N. - Weatherbox
-------------------------------------------------------------------------------

Tuning:Db Ab Db Gb Ab Db

This song is pretty hard to tab out perfectly considering the lack
of videos that actually shows him playing it and the weird tuning.
It's just DADGAD tuning but then you drop all strings another 1/2
step. I'm not sure if these chords are 100% correct but they fit 
really well and sound really close. The song is in 3/4.




Intro/Verse: This is basically the whole song. It's easy to figure out
the strumming. (Not sure if the notes in parentheses are played)

Db|-------------------------------------------------------------------------|
Ab|-------------------------------------------------------------------------|
Gb|---4-----6-----7-----6-----4---------------------------------------------|
Db|---5-----7-----9-----7-----5---------------------------------------------|
Ab|---5-----7-----9-----7-----5---------------------------------------------|
Db|--(5)---(7)---(9)---(7)---(5)--------------------------------------------|




Chorus: "You can, you will..."
The first chord is held for 12 quarter notes (4 measures)

Db|-------------------------------------------------------------------------|
Ab|-------------------------------------------------------------------------|
Gb|---6-----4---------------------------------------------------------------|
Db|---7-----5---------------------------------------------------------------|
Ab|---7-----5---------------------------------------------------------------|
Db|--(7)---(5)--------------------------------------------------------------|
            
Hard to play? Try these video lessons and learn fast. | Correct




comments powered by Disqus
↑ Back to top | Tablatures and chords are parodies/interpretations of the original songs. You may use it for private study, scholarship, research or language learning purposes only