» » »

We Are The In Crowd, Rumour Mill Tabs (ver.1)

Artists:  A B C D E F G H I J K L M N O P Q R S T U V W X Y Z # 

Rumour Mill Tabs (ver.1)

We Are The In Crowd Tabs
 Rating:
4/5 (4 votes)
Rumour Mill lessons Tabs too difficult? Try these video lessons and learn fast
                This is the song Rumour Mill by We Are The In Crowd
Tuning - Drop D (DADGBe)
These are the rhythm parts and not the lead (Apart from intro)

PM - Palm mute
/ - Slide

Intro
Lead
e|-------------------------------------------------|
B|-------------------------------------------------|
G|-13-13-10-10-13-13-10-10-10/11-------11-11-------|
D|-------------------------------11-11-------11-11-|
A|-------------------------------------------------|
D|-------------------------------------------------|

e|--------------------------------------|
B|--------------------------------------|
G|-13-13-10-10-13-13-10-10-10/11-11(x8)-|
D|--------------------------------------|
A|--------------------------------------|
D|--------------------------------------|

Intro
Rhythm
e|-------|
B|-------|
G|---6-4-|
D|-4-6-4-|  (x2) Figure out timing yourself
A|-4-4-2-|
D|-4-----|

Verse
e|---------------------|
B|---------------------|
G|--------------4------|
D|-44-44-4------4(x16)-|
A|-44-44-4(x16)-2------|
D|-44-44-4-------------|
         PM     PM

Pre-chorus
e|----------------------------------|
B|----------------------------------|
G|-8-----4------1111/1010/1111/1010-|
D|-8(x8)-4-(x8)-1111/1010/1111/1010-|
A|-6-----2------9 9 /8 8 /9 9 /8 8--|
D|----------------------------------|

e|--------------------------|
B|--------------------------|
G|-8-----4------6-1111/1313-|
D|-8(x8)-4-(x8)-6-1111/1313-| Figure out timing.
A|-6-----2------4-9 9 /1010-|
D|--------------------------|

Chorus
e|-------------------------|
B|-------------------------|
G|-4-----------6-----8-----|
D|-4(x8)-4-----6(x8)-8(x8)-|
A|-2-----4(x8)-4-----6-----|
D|-------4-----------------|

e|--------------------------------|
B|--------------------------------|
G|-4-----------6-----111111/13-13-|
D|-4(x8)-4-----6(x8)-111111/13-13-||figure out timing
A|-2-----4(x8)-4-----9 9 9 /11-11-|
D|-------4------------------------|

Play twice

Intro
Lead
e|-------------------------------------------------|
B|-------------------------------------------------|
G|-13-13-10-10-13-13-10-10-10/11-------11-11-------|
D|-------------------------------11-11-------11-11-|
A|-------------------------------------------------|
D|-------------------------------------------------|

e|--------------------------------------|
B|--------------------------------------|
G|-13-13-10-10-13-13-10-10-10/11-11(x8)-|
D|--------------------------------------|
A|--------------------------------------|
D|--------------------------------------|

Intro
Rhythm
e|-------|
B|-------|
G|---6-4-|
D|-4-6-4-|  (x2) Figure out timing yourself
A|-4-4-2-|
D|-4-----|

Verse 2
e|-----------------------------|
B|-----------------------------|
G|---------------4-------------|
D|-4------1------4(x16)-4------|
A|-4(x16)-1(x16)-2------4(x16)-|
D|-4------1-------------4------|
   PM     PM     PM     PM

e|--------------------------|
B|--------------------------|
G|-------------44-44--------|
D|-44-44-11-11-44-44-4------|
A|-44-44-11-11-22-22-4(x16)-|
D|-44-44-11-11-------4------|
                     PM

Pre-chorus
e|----------------------------------|
B|----------------------------------|
G|-8-----4------1111/1010/1111/1010-|
D|-8(x8)-4-(x8)-1111/1010/1111/1010-|
A|-6-----2------9 9 /8 8 /9 9 /8 8--|
D|----------------------------------|

e|---------------------|
B|---------------------|
G|-8-----4------6------|
D|-8(x8)-4-(x8)-6(x12)-| 
A|-6-----2------4------|
D|---------------------|

Chorus
e|-------------------------|
B|-------------------------|
G|-4-----------6-----8-----|
D|-4(x8)-4-----6(x8)-8(x8)-|
A|-2-----4(x8)-4-----6-----|
D|-------4-----------------|

e|--------------------------------|
B|--------------------------------|
G|-4-----------6-----111111/13-13-|
D|-4(x8)-4-----6(x8)-111111/13-13-||figure out timing
A|-2-----4(x8)-4-----9 9 9 /11-11-|
D|-------4------------------------|

Play Twice

Bridge/Middle8
e|-------------|
B|-------------|
G|-88/66/88/66-|
D|-88/66/88/66-|
A|-66/44/66/44-|
D|-------------|

e|-----------------------------|
B|-----------------------------|
G|--------4-------------6------|
D|-6------4(x16)-4------6(x16)-|
A|-6(x16)-2------4(x16)-4------|
D|-6-------------4-------------|

e|------------------------------|
B|------------------------------|
G|---------------4-------6------|
D|-6------1------4(x16)--6(x16)-|
A|-6(x16)-1(x16)-2-------4------|
D|-6------1---------------------|

e|----------|
B|----------|
G|----------| x2
D|-4~-6~-9~-|
A|-4~-6~-9~-|
D|-4~-6~-9~-|

Chorus
e|-------------------------|
B|-------------------------|
G|-4-----------6-----8-----|
D|-4(x8)-4-----6(x8)-8(x8)-|
A|-2-----4(x8)-4-----6-----|
D|-------4-----------------|

e|--------------------------------|
B|--------------------------------|
G|-4-----------6-----111111/13-13-|
D|-4(x8)-4-----6(x8)-111111/13-13-||figure out timing
A|-2-----4(x8)-4-----9 9 9 /11-11-|
D|-------4------------------------|

Play Twice

Outro
Lead
e|-------------------------------------------------|
B|-------------------------------------------------|
G|-13-13-10-10-13-13-10-10-10/11-------11-11-------|
D|-------------------------------11-11-------11-11-|
A|-------------------------------------------------|
D|-------------------------------------------------|

e|----------------------------------------|
B|----------------------------------------|
G|-13-13-10-10-13-13-10-10-10/11-11-11-11-|
D|----------------------------------------|
A|----------------------------------------|
D|----------------------------------------|

Outro
Rhythm
e|-------|
B|-------|
G|---6-4-|
D|-4-6-4-|   Figure out timing yourself
A|-4-4-2-|
D|-4-----|
 
End
e|-------|
B|-------|
G|-4-4-4-|
D|-4-4-4-|   
A|-2-2-2-|
D|-------|
            
Submit corrections

comments powered by Disqus
↑ Back to top | We Are The In Crowd Tabs for Rumour Mill. Lyrics for acoustic guitar and electric guitar. Tablatures and chords are parodies/interpretations of the original songs. You may use it for private study, scholarship, research or language learning purposes only