>
 >
Kiss Me Again

Kiss Me Again Bass Tabs

We Are The In Crowd - Kiss Me Again chords, tabs, tablatures, lyrics

Guitar lessons | Add/correct | Request | Top 50 tabs Artists:  A B C D E F G H I J K L M N O P Q R S T U V W X Y Z 0-9

Kiss Me Again Bass Tabs – We Are The In Crowd

CD, Sheet music, Poster

Do you like Kiss Me Again? Share with your friends now
Bass TabsChordsChords v2Chords v3Chords v4Chords v5TabsTabs v2Ukulele
Bass Player: Mike Ferri
Tuning: Drop D


| /  slide up
| \  slide down
| h  hammer-on
| p  pull-off
| ~  vibrato
| +  harmonic
| x  Mute note
| <> Bend note


[Notes are grouped together so that they are easier to read/count, no other reason]


Intro (0:00)

G|-------------777-55555-------------777-55555-----|
D|-777-88888--------------777-88888----------------|
A|-------------------------------------------------|
D|-------------------------------------------------|

Verse (0:08)

G|-------------777-55555-------------777-55555-----|
D|-777-88888--------------777-88888----------------|
A|-------------------------------------------------|
D|-------------------------------------------------|

G|-------------777-55555-----------------------------|
D|-777-88888--------------5555-5555--8888------------|
A|------------------------------------------3-3-3----|
D|---------------------------------------------------|

Verse [Continued] (0:23)

G|---------------------------------------------------------------------------|
D|---------------------------------------------------------------3-2---------|
A|------------555-33333-------------555-3333-5------------555-33-----3-------|
D|-777-88888-------------777-88888-------------777-88888---------------------|

Pre Chorus (0:38)

G|-------------------|
D|-------------------|
A|-------------------|
D|-5555-5555--8-8----|

Chorus (0:38)

G|------------------------------------------------------------|
D|--------------------------------------------------3---3-----|
A|-----------3-3--1---111-1111--------3-3--1---111----1-------|
D|-12\--3-3----------------------0-0--------------------------|

 (Slide down from 12)


G|-------------------------------------------------------|
D|---------2-3--------3---3------------2-3---------------|
A|-------3-----1--111---1---1---5-5--3-----1--1111--333--|
D|--3-3--------------------------------------------------|

G|---------------------------------------|
D|---------------------------------------|
A|-1111-11-3333-3333-33------------------|
D|----------------------5555-5555--8-8---|

Pre Verse (1:02)

G|--------------------------------------------------|
D|--------------------------------------------------|
A|-------------------------------------------3-3-3--|
D|--------------------------------------------------|

Verse (1:09)

G|-------------------------------------------------------777-55--10-9-------|
D|---------------------------------------------777-88888--------------10----|
A|------------555-33333-------------555-33333-------------------------------|
D|-777-88888-------------777-88888------------------------------------------|
                                                      (Those are 10s not 1s)
G|--------------------------|
D|--------------------------|
A|------------------3-3-3---|
D|-5555-5555--8888----------|

Verse [Continued] (1:25)

G|------------------------------------------------------7777-55--10-9-------|
D|---------------------------------------------777-8888---------------10----|
A|------------555-33333-------------555-3333-5------------------------------|
D|-777-88888-------------777-88888------------------------------------------|
                                                      (Those are 10s not 1s)
G|------------------|
D|------------------|
A|------------------|
D|-5555-5555--8-8---|

Chorus (1:40)

G|------------------------------------------------------------|
D|--------------------------------------------------3---3-----|
A|-----------3-3--1---111-1111--------3-3--1---111----1-------|
D|-12\--3-3----------------------0-0--------------------------|

 (Slide down from 12)


G|-------------------------------------------------------|
D|---------2-3--------3---3------------2-3---------------|
A|-------3-----1--111---1---1---5-5--3-----1--1111--333--|
D|--3-3--------------------------------------------------|

G|---------------------------------------|
D|---------------------------------------|
A|-1111-11-3333-3333-33------------------|
D|----------------------5555-5555--8-8---|

Bridge (2:04)

G|--------------------------------------------------------|
D|----------------------------------------------35--------|
A|--------------------------------------------------------|
D|-12\--0000-0000--7777-77-10-7--8888-888-10--33---2222---|

G|---------------------------------------------------------------------------|
D|----------------------------------------------3------3------3----3---3-----|
A|----------------------3333-3335--2222-2222--1---11-1---11-1---11---1---1---|
D|-0000-0000--7777-7757------------------------------------------------------|

End Chorus (2:31)

G|-------------------------------------------------------|
D|---------------------------------------------3---3-----|
A|------3-3--1---111-1111--------3-3--1---111----1-------|
D|-3-3----------------------0-0--------------------------|

G|-------------------------------------------------------|
D|---------2-3--------3---3------------2-3---------------|
A|-------3-----1--111---1---1---5-5--3-----1--1111--333--|
D|--3-3--------------------------------------------------|

G|-------------------------------------------------------------------------------|
D|----------------------------------------------------------------5555-5555--8-8-|
A|-1111-11-3333-3333-33----------------------5555-55-7777-7777-77----------------|
D|----------------------5555-55-8888-8888-88-------------------------------------|

Ending (3:02)

G|-----------------------------------------||
D|-----------------------------------------||
A|------3-3--1---111-1111------3-3--1------||
D|-3-3---------------------0-0-------------||



===============================================================================





Comments


Popular We Are The In Crowd tabs & chords
Rumor Mill Bass Tabs
Youve Got It Made Bass Tabs
Long Live The Kids Chords
Never Be What You Want 1 Chords
Windows In Heaven Chords
For The Win Tabs
Rumor Mill Tabs
Rumor Mill 3 Tabs
Rumour Mill Tabs
On Your Own Ukulele


Song lyrics



↑ Back to top | Tablatures and chords are parodies/interpretations of the original songs. You may use it for private study, scholarship, research or language learning purposes only
© 2014 AZChords.com Contact us | Privacy policy | DMCA | Add/correct tabs | Request tabs | Top 50 tabs