>
 >
Exits And Entrances

Exits And Entrances Bass Tabs

We Are The In Crowd - Exits And Entrances chords, tabs, tablatures, lyrics

Guitar lessons | Add/correct | Request | Top 50 tabs Artists:  A B C D E F G H I J K L M N O P Q R S T U V W X Y Z 0-9

Exits And Entrances Bass Tabs – We Are The In Crowd

CD, Sheet music, Poster

Do you like Exits And Entrances? Share with your friends now
Bass TabsChordsTabsUkulele
Bass Player: Mike Ferri
Tuning: C# G# C# F#



| /  slide up
| \  slide down
| h  hammer-on
| p  pull-off
| ~  vibrato
| +  harmonic
| x  Mute note
| <> Bend note

Intro (0:07)

F#|------------12-11-----------------------|
C#|------12-14--------14-------------------|
G#|--/14-------------------12--------------|
C#|----------------------------------------|

Intro Pt. 2 (0:14)
                                        h p 
F#|-------------------------------------------------------------------------------------|
C#|-------------------------------------------------------------------------------------|
G#|---------------------2222-2222---------------------------------------------5555-5555-|
C#|-5555--555--22--222-------------777-7^9^7---5555-555--2222-2222--0-0-0-0-0-----------|

Verse 1 (0:25)

F#|-----------------------------|
C#|-----------------------------|
G#|------------------------5----|
C#|-55---555---77--77-9------0--|

F#|----------------------------------------------------------------------------------|
C#|----------------------------------------------------------------------------------|
G#|----------------------------------------------------------------------------------|
C#|-5555-5555-5555-5555-7777-7777-9999-9999-5555-5555-5555-5555-7777-7777-0000-0000--|

Pre-Chorus (0:43)

F#|--------------------------|
C#|--------------------------|
G#|--------------------------|
C#|-5------------------------|

Chorus (0:49)

F#|-------------------------------------------------------------------------|
C#|-------------------------------------------------------------------------|
G#|-222---------------------------------------------------------2222-5555---|
C#|-----00-2-22-222-55555-5-0-0-0-00--999-99-7-77-777-5555-5555-------------|

Verse 2 (1:02)

F#|------------------------------------------------------------------7-----------------|
C#|---------------------------------5-4------------------------------------------------|
G#|-------------------------------------7-5-------------------------------5------------|
C#|-------------9-99-5555-5595--555---------7777-7777-9999-9999-5555--5-9---5555-5555--|

Pre-Chorus (1:13)

F#|-----------------------------------------------------------------------------------|
C#|-9999-9999--7777-7777--5555-5555-5555-5555--9999-9999-7777-7777-5555-5555----------|
G#|-----------------------------------------------------------------------------------|
C#|--------------------------------------------------------------------------5-5-5-5--|



Chorus (0:49)

F#|-------------------------------------------------------------------------|
C#|-------------------------------------------------------------------------|
G#|-222---------------------------------------------------------2222-5555---|
C#|-----00-2-22-222-55555-5-0-0-0-00--999-99-7-77-777-5555-7777-------------|

F#|-------------------------------------------------------------------------|
C#|------------------------------------------------------------------5555---|
G#|-222---------------------------------------------------------------------|
C#|-----00-2-22-222-55555-5-0-0-0-00--999-99-7-77-777-5555-5555-5555--------|

Bridge (1:49)

F#|----------------------------------------------------------------------------------|
C#|-5555-5555------------------------------------------------------------------------|
G#|---------------------2222-2222-----------------------------------------5555-5555--|
C#|-----------2222-2222-----------77-9-77-9-5555-5555-2222-2222-0000-0000------------|

F#|-------------------------------------------------------------|
C#|-------------------------------------------------------------|
G#|-------------------------------------------------------------|
C#|-0------------------------------0-0------------0-0-----------|

F#|-----------------------------------------------------------------------|
C#|-----------------------------------------------------------------------|
G#|-----------------------------------------------------------------------|
C#|-0-0---~12~---0--~12~----0-0---~12~---0--~12~---0-0---~12~---0--~12~---|

F#|-----------------------|
C#|-----------5555-5555---|
G#|-----------------------|
C#|-5555-5555-------------|

End Chorus (2:31)

F#|------------------------------------------------------------------------|
C#|------------------------------------------------------------------------|
G#|-222--------------------------------------------------------2222-5555---|
C#|-------2-22-222-55555-5-0-0-0-00--999-99-7-77-777-5555-7777-------------|

F#|------------------------------------------------------------------------------||
C#|------------------------------------------------------------------------------||
G#|-2222-------------------------------5555---------------------------2222-5\----||
C#|------0000-2222-2222-5555-5555-0000------999-99-7-77-777-5555-5555------------||


===============================================================================





Comments


Popular We Are The In Crowd tabs & chords
Better Luck Next Time Bass Tabs
All Or Nothing Chords
For The Win Chords
On Your Own Chords
Rumor Mill 1 Chords
Come Back Home Tabs
Rumor Mill Tabs
Rumour Mill Tabs
Rumour Mill Ukulele
Youve Got It Made Ukulele


Song lyrics



↑ Back to top | Tablatures and chords are parodies/interpretations of the original songs. You may use it for private study, scholarship, research or language learning purposes only
© 2014 AZChords.com Contact us | Privacy policy | DMCA | Add/correct tabs | Request tabs | Top 50 tabs