>
 >
Calendar Pages

Calendar Pages Bass Tabs

We Are The In Crowd - Calendar Pages chords, tabs, tablatures, lyrics

Guitar lessons | Add/correct | Request | Top 50 tabs Artists:  A B C D E F G H I J K L M N O P Q R S T U V W X Y Z 0-9

Calendar Pages Bass Tabs – We Are The In Crowd

CD, Sheet music, Poster

Do you like Calendar Pages? Share with your friends now
Bass Tabs
Bass Player: Mike Ferri
Tuning: Drop D



| /  slide up
| \  slide down
| h  hammer-on
| p  pull-off
| ~  vibrato
| +  harmonic
| x  Mute note
| <> Bend note



[Notes are always 1s and not 11s unless I have stated otherwise.]




Intro (0:00)

G|----------------------------------------------------|
D|---------6-6-----6-6--------------------------------|
A|-666-------------------6-8-6--1-111-1111-3333-------|
D|-----6-6-----6-6-----6------------------------1111--|

G|------------------------------------------------|
D|-----6-6-----6-6--------------------------------|
A|-------------------6-8-6--1-111-1111-3333-------|
D|-6-6-----6-6-----6------------------------1111--|

[Notes are grouped together so that its easier to read, no other reason]


Verse (0:12)

G|------------------------------------------------|
D|----------------------6-----------------6-88----|
A|------------------6-8---------------------------|
D|-6----------------------------------------------|

G|-------------------------------------------|
D|-------------------------------------------|
A|--------------------------------------111--|
D|-1-111-1111-1111-1111-1111-1111-1111-------|

Pre-Chorus (0:25)

G|------------------------------------------------------------------|
D|-------------------------------------------------------8888-8888--|
A|--------------333-1-1-1-1-----------------------------------------|
D|-6--6-6-6-6-6-------------1-1-333--6----------8-------------------|

Chorus (0:37)

G|----------------------------------------------------------------------------------|
D|-------------------------------------------------------------6666-6666-6666-6666--|
A|---------------------1111-1111-1111-1111------------------------------------------|
D|-1111-1111-1111-1111---------------------6666-6666-6666-6666----------------------|

Pre-Verse (0:49)

G|---------------------------|
D|----------5----------------|
A|----6-------3--------------|
D|-1-----1-------1-6-4-6-8---|

Verse (0:52)

G|----------------------------------------------------------------------------------|
D|----------------------------------------------------------------------6666-6666---|
A|---------------------6666-6666-6666-6666------------------------------------------|
D|-1111-1111-1111-1111---------------------6666-6666-6666-6666-6666-6666------------|

G|-----------------------------------------------------------------------------------|
D|-----------------------------------------------------------------------------------|
A|--------------------------------------------------------------3-333-333------------|
D|-111-1--1-1-1-1-1-111--3--33-3-3-3-3-333--6-666-6666-6666-666-----------6-666-666--|

Pre-Chorus (1:16)

G|---------------------------------------------------------------------------------|
D|---------------------------------------------------------------------------------|
A|-------------------6--6-8-6-------------------------------------------6--6-8-6---|
D|--3--3-1--1-1--6--6-6--------3--3-1--1-1--6-666-666--3--3-1--1-1--6--6-6---------|

G|-------------------|
D|-------------------|
A|-1111-1111-11------|
D|-------------------|

Chorus (1:28)

G|----------------------------------------------------------------------------------|
D|-------------------------------------------------------------6666-6666-6666-6666--|
A|---------------------1111-1111-1111-1111------------------------------------------|
D|-1111-1111-1111-1111---------------------6666-6666-6666-6666----------------------|

G|----------------------------------------------------------------------------------|
D|----------------------------------------------------------------------6666-6666---|
A|---------------------1111-1111-2222-2222-3333-3333-1111-1111----------------------|
D|-1111-1111-1111-1111-----------------------------------------6666-6666------------|

Bridge (1:52)

G|------------------------------------------------------------------------|
D|---------------------------5---3----------------------------------------|
A|-3-3-3-3--3-3-3-3--3-3-3-3---3---6--------------------------------------|
D|-----------------------------------6-6-6-6--6-6-6-6--6-6-6-6--6-6-6-6---|

G|----------------------------------------------------------------------------|
D|----------------------------------------------------------------------------|
A|-3-3-3-3--3-3-3-3--------------------------------------1111-1111-2222-2222--|
D|-------------------3-3-3-3--1-1-1-1--6-6-6-6--6-6-6-6-----------------------|

G|-----------------------------------------------------------------------------------|
D|-----------------------------------------------------------------------8888-8888---|
A|-3333-3333-3333-3333-----------------------------------------1111-1111-------------|
D|---------------------1111-1111-1111-1111-6666-6666-6666-6666-----------------------|

Chorus (2:28)

G|---------------------------------------------------|
D|---------------------------------------------------|
A|------------------1--------------------------------|
D|-1--------------------------------6----------------|

End Chorus (2:41)

G|----------------------------------------------------------------------------------|
D|-------------------------------------------------------------6666-6666-6666-6666--|
A|---------------------1111-1111-1111-1111------------------------------------------|
D|-1111-1111-1111-1111---------------------6666-6666-6666-6666----------------------|

G|----------------------------------------------------------------------------------|
D|----------------------------------------------------------------------6666-6666---|
A|---------------------1111-1111-2222-2222-3333-3333-1111-1111----------------------|
D|-1111-1111-1111-1111-----------------------------------------6666-6666------------|

Ending (3:05)

G|------------------------------------------------|
D|-----6-6-----6-6--------------------------------|
A|-------------------6-8-6--1-111-1111-3333-------|
D|-6-6-----6-6-----6------------------------1111--|

G|------------------------------------------------||
D|-----6-6-----6-6--------------------------------||
A|-------------------6-8-6--1-111-1111-3333-------||
D|-6-6-----6-6-----6------------------------1111--||


===============================================================================





Comments


Popular We Are The In Crowd tabs & chords
Carry Me Home Bass Tabs
Both Sides Of The Story 1 Chords
Exits And Entrances Chords
Kiss Me Again 1 Chords
Kiss Me Again 3 Chords
Never Be What You Want 2 Chords
Rumor Mill 5 Chords
Lights Out Intro Tabs
Rumour Mill Tabs
Rumour Mill Ukulele


Song lyrics



↑ Back to top | Tablatures and chords are parodies/interpretations of the original songs. You may use it for private study, scholarship, research or language learning purposes only
© 2014 AZChords.com Contact us | Privacy policy | DMCA | Add/correct tabs | Request tabs | Top 50 tabs