» » »

I Am Only One Chords (ver.1)

Artists:  A B C D E F G H I J K L M N O P Q R S T U V W X Y Z # 

I Am Only One Chords (ver.1)

We Are The Fallen
Rating:
0/5 (0 votes)

Hard to play? Try these video lessons and learn fast.
                (Intro)
     Q    Q    Q    Q       Q    Q    Q    Q       Q    Q    Q    Q     
E||--7-------------------|------------8----7----|-----------------5----|
B||-------3----5----7----|--8----3--------------|------------8---------|
G||----------------------|----------------------|-------7--------------|
D||----------------------|----------------------|--7-------------------|
A||----------------------|----------------------|----------------------|
E||----------------------|----------------------|----------------------|


  Q    Q    Q    Q       Q    Q    Q    Q       Q    Q    Q    Q     
-----------------5----|--7-------------------|------------8----7----|
--7---------8---------|-------3----5----7----|--8----3--------------|
----------------------|----------------------|----------------------|
----------------------|----------------------|----------------------|
----------------------|----------------------|----------------------|
----------------------|----------------------|----------------------|


  Q    Q    Q    Q       Q    Q    Q      
-----------------5----|-----------------||
------------8---------|--7----8----5----||
-------7--------------|-----------------||
--7-------------------|-----------------||
----------------------|-----------------||
----------------------|-----------------||




Duration Legend
---------------
W - whole
H - half
Q - quarter
E - 8th
S - 16th
T - 32nd
X - 64th
. - note dotted
|-n-|  - n-tuplets


Tablature Legend
----------------
L - tied note
x - dead note
g - grace note
(n) - ghost note
> - accentuded note
NH - natural harmonic
AH - artificial harmonic
TH - tapped harmonic
SH - semi harmonic
PH - pitch harmonic
h - hammer on
p - pull off
b - bend
br - bendRelease
pb - preBend
pbr - preBendRelease
brb - bendReleaseBend
\n/ - tremolo bar dip
\n - tremolo bar dive
-/n - tremolo bar Release up
/n\ - tremolo bar inverted dip
/n - tremolo bar return
-\n - tremolo bar Release down
S - shift slide
s - legato slide
/ -  slide into from below or out of upwards
\ -  slide into from above or out of downwards
~ - vibrato
W - wide vibrato
tr - trill
TP - tremolo picking
T - tapping
S - slap
P - pop
< - fade in
^ - brush up
v - brush down
            
Hard to play? Try these video lessons and learn fast. | Correct




comments powered by Disqus
↑ Back to top | Tablatures and chords are parodies/interpretations of the original songs. You may use it for private study, scholarship, research or language learning purposes only