» » »

We Are Scientists, Worth The Wait Tabs (ver.2)

Artists:  A B C D E F G H I J K L M N O P Q R S T U V W X Y Z # 

Worth The Wait Tabs (ver.2)

We Are Scientists Tabs
Rating:
0/5 (0 votes)
Worth The Wait lessons Tabs too difficult? Try these video lessons and learn fast
                -------------------------------------------------------------------------------
                             Worth The Wait - We Are Scientists
-------------------------------------------------------------------------------

Tuning: standard


Intro/Verse (x2):

e|------10------------10----------8-8-8---8-8-10--|
B|---------10----8-------10-------8-8-8---8-8-8---|
G|--12--------10------------10-8------------------|
D|--12--------------------------------------------|
A|--10--------------------------------------------|
E|------------------------------------------------|

e|--10-10-10---10-10-6---6-6-8---8-8-10-8-6--|
B|--8--8--8----8--8--8---8-8-8---8-8-8--8-8--|
G|-------------------------------------------|
D|-------------------------------------------|
A|-------------------------------------------|
E|-------------------------------------------|


Chorus:

e|-----------------------------------------------------|
B|-----------------------------------------------------|
G|-12-12-12-12--14-14-14-14--15-15-15-15--14-14-14-14--|
D|--x--x--x--x---x--x--x--x---x--x--x--x---x--x--x--x--|
A|-10-10-10-10--12-12-12-12--13-13-13-13--12-12-12-12--|
E|-----------------------------------------------------|

e|-----------------------------------------------------|
B|-----------------------------------------------------|
G|-12-12-12-12--14-14-14-14--15-15-15-15--19-19-19-19--|
D|--x--x--x--x---x--x--x--x---x--x--x--x---x--x--x--x--|
A|-10-10-10-10--12-12-12-12--13-13-13-13--17-17-17-17--|
E|-----------------------------------------------------|



Verse 2:

e|------------------------------------------------------------|
B|------------------------------------------------------------|
G|------------------------------7(x14)-6-7--------------------|
D|-----------------8(x14)-7-8--------------8(x14)-7-7-8-8-----|
A|--10(x14)-9-10------------------------------------------10--|
E|------------------------------------------------------------|

e|------------------------------------------------------------|
B|------------------------------------------------------------|
G|------------------------------7(x14)-6-7--------------------|
D|-----------------8(x14)-7-8--------------8(x14)-7-7-8-8-----|
A|--10(x14)-9-10------------------------------------------10--|
E|------------------------------------------------------------|


(this is played ontop of 2nd part of verse)

e|--6-6-6-6--8-8-8-8--|
B|--8-8-8-8--8-8-8-8--|
G|--------------------|
D|--------------------|
A|------(repeat)------|
E|--------------------|


Solo:

e|-------10-----------10------------------------------------|
B|----------10----8~------10--------------------------------|
G|--12---------10-----------10-88-77-88-1010-88-77----------|
D|--10---------------------------------------------88-7-----|
A|--10--------------------------------------------------10--|
E|----------------------------------------------------------|


e|--10---10-10-10--10-668866668888-8-10-8-6--|
B|--8----8--8--8---8--888888888888-8--8-8-8--|
G|-------------------------------------------|
D|-------------------------------------------|
A|-------------------------------------------|
E|-------------------------------------------|


e|--10-----------10---------8886665556668886665--|
B|-----10----8~------10--------------------------|
G|--------10-----------10-8----------------------|
D|-----------------------------------------------|
A|-----------------------------------------------|
E|-----------------------------------------------|

e|--10---10-10-10--10-668866668888-8-10-8-6--|
B|--8----8--8--8---8--888888888888-8--8-8-8--|
G|-------------------------------------------|
D|-------------------------------------------|
A|-------------------------------------------|
E|-------------------------------------------|


Outro:

e|--6-6-6-6--8-8-8-8--|---6---|
B|--8-8-8-8--8-8-8-8--|---8---|
G|--------------------|-------|
D|--------------------|-------|
A|----(repeat)--------(finish)|
E|--------------------|-------|


| /  slide up
| \  slide down
| h  hammer-on
| p  pull-off
| ~  vibrato
| +  harmonic
| x  Mute note
===============================================================================
            
Submit corrections

comments powered by Disqus
↑ Back to top | We Are Scientists Tabs for Worth The Wait. Lyrics for acoustic guitar and electric guitar. Tablatures and chords are parodies/interpretations of the original songs. You may use it for private study, scholarship, research or language learning purposes only