>
 >
This Scene Is Dead

This Scene Is Dead Bass Tabs

We Are Scientists - This Scene Is Dead chords, tabs, tablatures, lyrics

Guitar lessons | Add/correct | Request | Top 50 tabs Artists:  A B C D E F G H I J K L M N O P Q R S T U V W X Y Z 0-9

This Scene Is Dead Bass Tabs – We Are Scientists

CD, Sheet music, Poster

Do you like This Scene Is Dead? Share with your friends now
Bass TabsTabsTabs v2Tabs v3
intro:
 G|-----------------------------------------|
 D|-----------------------------------------|
 A|-----------------------------------------|
 E|-9-9-9-9-9-9-9-9-12-12-12-12-12-12-12-12-|

 G|-------------------------------------------------|
 D|-------------------------------------------------|
 A|-12-12-12-12-12-12-12-12-12-12-12-12-12-12-12-12-|  x4
 E|-------------------------------------------------|

first verse:
 G|----------------------------------------------------------------|
 D|----------------------------------------------------------------|
 A|-0-0-----4-4---------------------0-0-----4-4----------------0---|
 E|-----------------2-2-----2-2---------------------2-2----0-2---2-|

 G|---------------------------------------------------------------------|
 D|---------------------------------------------------------------------|
 A|-0-0-----4-4---------------------0-0-----4-4-------------------------|
 E|-----------------2-2-----2-2-2/9-----------------2-2-----2--4--5-7-9-|

bridge:
 G|-------------------------------------------------|
 D|-------------------------------------------------|
 A|-------------------------------------------------|
 E|-10-10-10-10-10-10-10-10-10-10-10-10-10-10-10-10-|

 G|---------------------------------|
 D|---------------------------------|
 A|---------------------------------|
 E|-7-7-7-7-7-7-7-7-7-7-7-7-7-7-7-7-|

 G|------------------------------------------------------------|
 D|------------------------------------------------------------|
 A|------------------------------------------------------------|
 E|-5-5-5-5-5-5-5-5--9-9-9-9-9-9--5-5-5-5-5-5-5-5--9-9-9-9-9-9-|

chorus:
 G|---------------------------------------------------------------------------|
 D|---------------------------------------------------------------------------|
 A|---------------------------------------------12----12-------12-------------|
 E|-10-10-10-10-10-10-10-10--5-5-5-5-5-5--10-10----10----10-10----5-5-5-5-5-5-|

 G|---------------------------------------------------------------------------------|
 D|---------------------------------------------------------------------------------|
 A|---------------------------------------------------------------------------------|
 E|-2-2-2-2-2-2-2-2-5-5-5-5-5-5-5-5-10-10-10-10-10-10-10-10-10-10-10-10-10-10-10-10-|

second verse, watch out for the change in rhythm:
 G|-------------------------------------------------------|
 D|-------------------------------------------------------|
 A|-0-0-0--0--0-0-0-4-4--4--4-4--4------------------------|
 E|--------------------------------2--2--2--2--2--2--2--2-|

 G|--------------------------------------------------|
 D|--------------------------------------------------|
 A|-2-0-0--0--0--0-4-4--4--4--4----------------------| x4
 E|----------------------------2-2--2--2--2--2--2--2-|

 G|---------------------------------------------------|
 D|---------------------------------------------------|
 A|-2-0-0--0--0--0-4-4--4--4--4-----------------------|
 E|-----------------------------2-2--2--2--2--4--7--9-|

bridge x 1
chorus x 1

solo:
 G|----------------------------------------------------|
 D|----------------------------------------------------|
 A|-0-0-0--0--0--0-4-4--4--4-4----------------0--------|
 E|----------------------------2-2--2--2--0-2---2--2-2-|


 G|----------------------------------------------------------|
 D|-----------------------2----------------------------------|
 A|-0-0-0--0--0--0-4-4--4---4-2p0--------------4-2p0---4-2p0-|
 E|-------------------------------2-2--2--2--2-------2-------|

 G|-------------------------------------------------|
 D|----------2-----------4--------------------------|
 A|-0-0-0--0---0--4-4--4---4--------------4---2p0---|
 E|--------------------------2-2--2--2--2---2-----2-|

 G|---------------------------------------------|
 D|----------2--------4-------------------------|
 A|-0-0-0--0---0--4-4---4-4-4-----4---2---4---2-|
 E|---------------------------2-2---2---2---2---|

bridge:
 G|-------------------------------------------------|
 D|-------------------------------------------------|
 A|-------------------------------------------------|
 E|-10-10-10-10-10-10-10-10-10-10-10-10-10-10-10-10-|

 G|---------------------------------|
 D|---------------------------------|
 A|---------------------------------|  x2
 E|-7-7-7-7-7-7-7-7-7-7-7-7-7-7-7-7-|

 G|------------------------------------------------------------|
 D|------------------------------------------------------------|
 A|------------------------------------------------------------|
 E|-5-5-5-5-5-5-5-5--9-9-9-9-9-9--5-5-5-5-5-5-5-5--9-9-9-9-9-9-|

chorus:
 G|---------------------------------------------------------------------------|
 D|---------------------------------------------------------------------------|
 A|---------------------------------------------12----12-------12-------------|
 E|-10-10-10-10-10-10-10-10--5-5-5-5-5-5--10-10----10----10-10----5-5-5-5-5-5-|

 G|---------------------------------------------------------------------------------|
 D|---------------------------------------------------------------------------------|
 A|---------------------------------------------------------------------------------|  x3
 E|-2-2-2-2-2-2-2-2-5-5-5-5-5-5-5-5-10-10-10-10-10-10-10-10-10-10-10-10-10-10-10-10-|

end on:
 G|---
 D|---
 A|-0~
 E|---





Comments


Popular We Are Scientists tabs & chords
Altered Beast Bass Tabs
I Don’T Bite Bass Tabs
Inaction 3 Bass Tabs
Lousy Reputation Bass Tabs
After Hours Chords
Great Escape 2 Chords
Jack & Ginger Tabs
Callback Ukulele
Lethal Enforcer Ukulele
Spoken For Ukulele


Song lyrics



↑ Back to top | Tablatures and chords are parodies/interpretations of the original songs. You may use it for private study, scholarship, research or language learning purposes only
© 2014 AZChords.com Contact us | Privacy policy | DMCA | Add/correct tabs | Request tabs | Top 50 tabs