» » »

This Scene Is Dead Tabs (ver.2)

Artists:  A B C D E F G H I J K L M N O P Q R S T U V W X Y Z # 

This Scene Is Dead Tabs (ver.2)

We Are Scientists
Rating:
0/5 (0 votes)
Tabs too difficult? Try these video lessons and learn fast.
                This scene is dead - We are scientists

this is similar to other tabs but i find this is easier to play - you
decide for yourself!

everything is here, its easy to work out when and where u play each bit.

===Aradoman=== ;)


e -------------------------------------------------------------------|
b -------------------------------------------------------------------|
g -------------------------------------------------------------------|
D -----------------1111111111111111----------------------------------|
A -1212121212121212-----------------99999----------------------------|
E -------------------------------------------------------------------|
						[intro - first part x4]

e --------------------------------------------------------------------|
b --------------------------------------------------------------------|
g --------------------------------------------------------------------|
D ------------------1111-99-------------------------------------------|
A -1212121212121212---------1212-1111-99-1111-99-1212-99-1111-99-1212-|
E --------------------------------------------------------------------|
						[second part x2]

e -------------------------------------------------------------------|
b -------------------------------------------------------------------|
g -------------------------------------------------------------------|
D -----------------1111111111111111----------------------------------|
A -1212121212121212-----------------9~~~~~~~~~~~~~~~~----------------|
E -------------------------------------------------------------------|
							[verse]

e -------------------------------------------------------------------|
b -------------------------------------------------------------------|
g -------------------------------------------------------------------|
D -999999999999999999999999999999999 (bend up on last)---------------|
A -------------------------------------------------------------------|
E -------------------------------------------------------------------|
							[pre chorus]

e --55555--/-4444---55555--/-4444------------------------------------|
b --55555--/-4444---55555--/-4444------------------------------------|
g --55555--/-6666---55555--/-6666------------------------------------|
D --77777--/-6666---77777--/-6666------------------------------------|
A --77777--/-4444---77777--/-4444------------------------------------|
E --55555--/-4444---55555--/-4444------------------------------------|
							[chorus]

e --55555---55555---55555---55555------------------------------------|
b --55555---55555---55555---55555------------------------------------|
g --55555---77777---55555---77777------------------------------------|
D --77777---77777---77777---77777------------------------------------|
A --77777---55555---77777---55555------------------------------------|
E --55555---55555---55555---55555------------------------------------|
							[chorus cont.]

e --55555---22222---55555---55555------------------------------------|
b --55555---22222---55555---66666------------------------------------|
g --55555---22222---77777---77777------------------------------------|
D --77777---44444---77777---77777------------------------------------|
A --77777---44444---55555---55555------------------------------------|
E --55555---22222---55555---55555------------------------------------|
							[chorus cont.]


e ----------------------------------------------------141414---------|
b ----------------------------------------------------141414---------|
g ----------------------------------------------------141414---------|
D -----------------1111111111111111----------------------------------|
A -1212121212121212-----------------9~~~~~~~~~~~~~~~~----------------|
E -------------------------------------------------------------------|
							[second verse]


e -------------------------------------------------------------------|
b -14141414-17171717171717-------------------------------------------|
g -14141414-14141414141414-------------------------------------------|
D -------------------------------------------------------------------|
A -------------------------------------------------------------------|
E -------------------------------------------------------------------|
							[pre solo x4]

e ----------------------14-------------------------------------------|
b -14-12----------14-12----------------------------------------------|
g -------14-13-14----------------------------------------------------|
D -------------------------------------------------------------------|
A -------------------------------------------------------------------|
E -------------------------------------------------------------------|
							[solo]

(this is just the start of the solo, you can play it over which is easier
 or work out the rest if you want to do it properly)
            
Tabs too difficult? Try these video lessons and learn fast.


comments powered by Disqus
↑ Back to top | Tablatures and chords are parodies/interpretations of the original songs. You may use it for private study, scholarship, research or language learning purposes only