» » »

This Is A Fire Door Never Leave Open Tabs (ver.1)

Artists:  A B C D E F G H I J K L M N O P Q R S T U V W X Y Z # 

This Is A Fire Door Never Leave Open Tabs (ver.1)

Weakerthans
Rating:
1/5 (1 vote)

Hard to play? Try these video lessons and learn fast.
                (Intro)
Guitar 1 (CAPO ON 5TH FRET) Repeat each chord several times.

e-|---------|
B-|-1-------|
G-|-0---2---|
D-|-2---3---| 
A-|-3---3---|
E-|-----1---| 

Guitar 2

e-|-----------------|
B-|-8-10---8-10-----|
G-|-----9------9-10-|
D-|-----------------|
A-|-----------------|
E-|-----------------|

Both guitars end on intro F5 (x 8 10 10 x x)
            
Hard to play? Try these video lessons and learn fast. | Correct




comments powered by Disqus
↑ Back to top | Tablatures and chords are parodies/interpretations of the original songs. You may use it for private study, scholarship, research or language learning purposes only