» » »

Reasons Tabs (ver.1)

Artists:  A B C D E F G H I J K L M N O P Q R S T U V W X Y Z # 

Reasons Tabs (ver.1)

Weakerthans
Rating:
5/5 (4 votes)

Tabs too difficult? Try these video lessons and learn fast.
                the  weakerthans - the reasons


go buy a capo!

this is another tricky 2 guitar based one where stephen(the lead guitarist) uses a capo
the 5th fret while john(the singer and rythem guitarist) uses no capo. (if you wear
you can hear john in the left hear and stephen on the right) but if you dont have 2 
around (or 4 arms) then its gonna be hard to play the whole thing. of course it will
sound better with a full band but you can sorta mix and match the guitar parts to your 
or find someone to play with.

the intro is played by stephen so use a capo on the 5th fret:

relative to capo:
E|--------------------------------------------------------------------|
B|--------------------------------------------------------------------|
G|-----0-----0-----0---0-0------4p2p0-----0-----0-----0---0-0--4-2p0--|
D|---0-----0-----0---2-----4---0--------0-----0-----0---2-------------|
A|-2-----4----------------------------2-----4-------------------------|
E|--------------------------------------------------------------------|

relative to open strings(still play with a capo on 5)
E|--------------------------------------------------------------------|
B|--------------------------------------------------------------------|
G|-----5-----5-----5---5-5------9p7p5-----5-----5-----5---5-5--9-7p5--|
D|---5-----5-----5---7-----9---5--------5-----5-----5---7-------------|
A|-7-----9----------------------------7-----9-------------------------|
E|--------------------------------------------------------------------|


verse 1 "how i dont know how to sing..."
john is playing pretty simple powerchords with strait downstrokes,
no palm muting:
   G5  D5  C5
E|---|---|---|
B|---|---|---|
G|---|-7-|-5-|
D|-5-|-7-|-5-|
A|-5-|-5-|-3-|
E|-3-|---|---|

while stephen plays powerchords with palm-muting and un-palm-muting and the lead
still basically G5 D5 C5.
**im not tabbing the time or rythems so when a chord is tabbed its not played just once**
these are not tabbed relative to the capo, but everthing is played abouve the 5th fret
so just treat a '5' as an open string.
E|--------------------------------------------------|
B|-------------7----------------------12-10---------|
G|----12-------7----------------------------12-9----|
D|-12-12-----7-7------10-9-8-5-10----------------12-|
A|-10-10-----5-5---------------10-10----------------|
E|-^---------^-----------------8--8-----------------|
   ^palm muted part               ^

E|----------------------------------|
B|----------------7-8-7-------------|
G|----12----------7-7-7-------------|  play intro
D|-12-12--9p7---7-7-7-7---9-7h9p7p5-|
A|-10-10-----9--5-5-5-5-------------|
E|-^------------^-------------------|


Chorus "i know you might roll your eyes at this..."
john: G5 D5 B5 C5 x2

stephen: x2
E|-------------------------------------------------------------------------|
B|-------------------------------------------------------------------------|
G|-----12--12--11-12--12--12-12-12-----------------------------------------|
D|--12-12--12--9--12--12--12-12-12-9-9-9-9-9-9-9-9-10-10-10-10-10-10-10-10-|
A|--10-10--10--9--9---9---9--9--9--9-9-9-9-9-9-9-9-10-10-10-10-10-10-10-10-|
E|---------------------------------7-7-7-7-7-7-7-7-8--8--8--8--8--8--8--8--|


verse 2 "how we waste our precious time marching in the picket lines.."
G5 D5 C5

E|--------------------------------|
B|----------------7-8-------------|
G|----12----------7-7-------------|  play intro
D|-12-12--9p7---7-7-7-9-7--7h9p7--|
A|-10-10-----9--5-5-5-------------|
E|-^------------^-----------------|

then play Chorus again then play this little extendend chorus which that carries onto
bridge.
G5 D5 B5 C5

E|-----------------------------------------------------------------------|
B|-----------12--12-13p12------------------------------------------------|
G|-12h14--14--------------14--12-----------------------------------------|
D|-------------------------------9-9-9-9-9-9-9-9-10-10-10-10-10-10-10-10-|
A|-------------------------------9-9-9-9-9-9-9-9-10-10-10-10-10-10-10-10-|
E|-------------------------------7-7-7-7-7-7-7-7-8--8--8--8--8--8--8--8--|

E|-------------------------------------------------------------------------|
B|-------------------------------------------------------------------------|
G|-----12--12--11-12--12--12-12-12-----------------------------------------|
D|--12-12--12--9--12--12--12-12-12-9-9-9-9-9-9-9-9-10-10-10-10-10-10-10-10-|
A|--10-10--10--9--9---9---9--9--9--9-9-9-9-9-9-9-9-10-10-10-10-10-10-10-10-|
E|---------------------------------7-7-7-7-7-7-7-7-8--8--8--8--8--8--8--8--|

then play G a while on both guitars, with some feedback and different rythems, then
plays the intro riff again

then the chorus part again
E|---------------------------------------------------------|
B|---------------------------------------------------------|
G|---------------------------------------------------------|
D|-9-9-9-9-9-9-9-9-10-10-10-10-10-10-10-10-----------------|
A|-9-9-9-9-9-9-9-9-10-10-10-10-10-10-10-10-----------------|
E|-7-7-7-7-7-7-7-7-8--8--8--8--8--8--8--8------------------|

E|-------------------------------------------------------------------------|
B|-------------------------------------------------------------------------|
G|-----12--12--11-12--12--12-12-12-----------------------------------------|
D|--12-12--12--9--12--12--12-12-12-9-9-9-9-9-9-9-9-10-10-10-10-10-10-10-10-|
A|--10-10--10--9--9---9---9--9--9--9-9-9-9-9-9-9-9-10-10-10-10-10-10-10-10-|
E|---------------------------------7-7-7-7-7-7-7-7-8--8--8--8--8--8--8--8--|

end a a few G's.
            
Tabs too difficult? Try these video lessons and learn fast.




comments powered by Disqus
↑ Back to top | Tablatures and chords are parodies/interpretations of the original songs. You may use it for private study, scholarship, research or language learning purposes only