» » »

Relative Surplus Value Tabs (ver.1)

Artists:  A B C D E F G H I J K L M N O P Q R S T U V W X Y Z # 

Relative Surplus Value Tabs (ver.1)

Weakerthans
Rating:
5/5 (1 vote)

Hard to play? Try these video lessons and learn fast.
                CAPO 2
  INTRO               VERSE PART 1(Find the airport at 7 a.m....)
E|-7-------5---5--||-7----------------7-----------------------------------------|
B|-9-------7---5--||-9----------------9-----------------------------------------|
G|-9-------7---6--||-9----------------9-----------------------------------------|
D|-9-------7---7--||-9----------------9-----------------------------------------|
A|-7-------5---7--||-7----------------7-----------------------------------------|
E|-------------5--||------------------------------------------------------------|

  VERSE PART 2(You won't be laughing when you hear...)
   A        A        E
e|-9--------9--------7------------------------------------------------------------|
B|---10-------10-----9------------------------------------------------------------|
G|------9------------9---x2-------------------------------------------------------|
D|---------------7---9------------------------------------------------------------|
A|-------------------7------------------------------------------------------------|
E|--------------------------------------------------------------------------------|

  VERSE PART 1(Think of the time I came to visit you here...)
   E            D A   E            D A
e|-7------------5-5-|-7------------5-5-|------------------------------------------|
B|-9------------7-5-|-9------------7-5-|------------------------------------------|
G|-9------------7-6-|-9------------7-6-|------------------------------------------|
D|-9------------7-7-|-9------------7-7-|------------------------------------------|
A|-7------------5-7-|-7------------5-7-|------------------------------------------|
E|----------------5-|----------------5-|------------------------------------------|

  VERSE PART 2(The elevator's fast and pops...)
   A        A        E
e|-9--------9--------7------------------------------------------------------------|
B|---10-------10-----9------------------------------------------------------------|
G|------9------------9---x2-------------------------------------------------------|
D|---------------7---9------------------------------------------------------------|
A|-------------------7------------------------------------------------------------|
E|--------------------------------------------------------------------------------|

 CHORUS (Touch my nametag, should say hello...)
   E    D    A    E                       E    D    F#m
e|-0----2----0--------------------------|-0----2----2-----------------------------|
B|-0----3----2---------9-10--9----------|-0----3----2-----------------------------|
G|-1----2----2----9-11---------11h9-----|-1----2----2-----------------------------|
D|-2----0----2----------------------(x2)|-2----0----4-----------------------------|
A|-2---------0--------------------------|-2---------4-----------------------------|
E|-0------------------------------------|-0---------2-----------------------------|

REPEAT VERSE PART 2 (different lyrics)

REPEAT CHORUS with more F#m's (different lyrics)

  OUTRO (So what I'm trying to say...)
   A    D    E
e|-5----5----7------------------------------------------------------------------|
B|-5----7----9------------------------------------------------------------------|
G|-6----7----9------------------------------------------------------------------|
D|-7----7----9------------------------------------------------------------------|
A|-7----5----7------------------------------------------------------------------|
E|-5----------------------------------------------------------------------------|
            
Hard to play? Try these video lessons and learn fast. | Correct




comments powered by Disqus
↑ Back to top | Tablatures and chords are parodies/interpretations of the original songs. You may use it for private study, scholarship, research or language learning purposes only