>
 >
Beaumont Rag 1

Beaumont Rag 1 Guitar Tabs

Watson Doc - Beaumont Rag 1 chords, tabs, tablatures, lyrics

Guitar lessons | Add/correct | Request | Top 50 tabs Artists:  A B C D E F G H I J K L M N O P Q R S T U V W X Y Z 0-9

Beaumont Rag 1 Guitar Tabs – Watson Doc

CD, Sheet music, Poster

Do you like Beaumont Rag 1? Share with your friends now
TabsTabs v2
Lines: 236

Hi folks

Here's TAB to a nice flatpicking arrangement of a traditional fiddle tune: 
"Beaumont Rag" as played by Doc Watson on the album "The Essential Doc Watson."

(traditional, arr. Doc Watson, TAB by Bo Parker)

 Pick-up measure
  N/C            
  |   |   |   |    
|-------------0---|
|-----2---3-------|
|-----------------|
|-----------------|
|-----------------|
|-----------------|

  G7                                  C
  |   |   |   |     |   |   |   |     |   |   |   |     |   |   |   |   
|-1-3-1-0---0-----|-----------------|---0---0---------|-----------------|
|---------3---3-0-|---0---0-------0-|-4---4---1-----1-|-----------------|
|-----------------|-3---3---0-2-0---|-----------2-0---|-2-0-----0-2-0---|
|-----------------|-----------------|-----------------|-----2-3-------2-|
|-----------------|-----------------|-----------------|-----------------|
|-----------------|-----------------|-----------------|-----------------|

  G7                                  C
  |   |   |   |     |   |   |   |     |   |   |   |     |   |   |   |   
|-----------1-1-1-|-----------------|-----------------|-----------------|
|-----------0-0-0-|-----------------|-----------------|-----------------|
|-------0---0-0-0-|-------0---2-0---|---------0-2-0---|---------0-2-0---|
|-0-2-3-----------|-0-2-3---------2-|---0-2-3-------2-|---0-2-3---------|
|-----------------|-----------------|-3---------------|-3---------------|
|-----------------|-----------------|-----------------|-----------------|

  G7                                  C
  |   |   |   |     |   |   |   |     |   |   |   |     |   |   |   |   
|-2/3-------1-----|-----------------|---0---0---------|-----------------|
|-------3-----3-0-|---0-----------0-|-4---4---1-----1-|-----------------|
|-----------------|-3-----0-0-2-0---|-----------2-0---|-2-0---0-0-----0-|
|-----------------|-----------------|-----------------|-----2-----2-----|
|-----------------|-----------------|-----------------|-------------3---|
|-----------------|-----------------|-----------------|-----------------|

  F       F#dim     C       A7        D7      G7        C
  |   |   |   |     |   |   |   |     |   |   |   |     |   |   |   |   
|-----------------|---0-------------|-----------------|-----------------|
|-------0-1---3-0-|-4---1-----------|-0---------------|-----1-1---------|
|---0-2-----------|-------2-0---2-0-|---2-0-------0---|-----0-0---0-----|
|-3---------------|-----------------|-------3-2-0---2-|-----2-2-2-------|
|-----------------|-----------------|-----------------|-3-----------0-1-|
|-----------------|-----------------|-----------------|-----------------|


  G7                                  C
  |   |   |   |     |   |   |   |     |   |   |   |     |   |   |   |   
|-----------------|-----------------|-----------------|-----------------|
|-----------------|-----------------|-----------------|-----------------|
|-----0-----2-----|-0-----2---0-----|-----0-----2-----|-0-----2---0-----|
|---0-----0-----0-|-----0---------0-|---2-----2-----2-|-----2---2-----0-|
|-2-----2-----2---|---2-----2---2---|-3-----3-----3---|---3---------3---|
|-----------------|-----------------|-----------------|-----------------|

  G7                                  C
  |   |   |   |     |   |   |   |     |   |   |   |     |   |   |   |   
|-----------------|-----------------|-----------------|-----------------|
|-----------------|---------------0-|-1-----1---------|-----------------|
|-----0-----2-----|-0-----2---0-2---|---2-0---2-0-----|-0-2-0-----------|
|---0-----0-----0-|-----0-----------|-------------2-3-|-------2-0-------|
|-2-----2-----2---|---2-------------|-----------------|-----------3-0-1-|
|-----------------|-----------------|-----------------|-----------------|

  G7                                  C
  |   |   |   |     |   |   |   |     |   |   |   |     |   |   |   |   
|-----------------|-----------------|-----------------|-----------------|
|-----------------|-----------------|-----------------|-----------------|
|-----0-----2-----|-0-----2---0-----|-----0-----2-----|-0-----2---0-----|
|---0-----0-----0-|-----0---------0-|---2-----2-----2-|-----2-------2-0-|
|-2-----2-----2---|---2-----2---2---|-3-----3-----3---|---3-----3-------|
|-----------------|-----------------|-----------------|-----------------|

                                    Second time to Coda
  F       F#dim     C       A7        D7      G7      * C
  |   |   |   |     |   |   |   |     |   |   |   |     |   |   |   |   
|-----------------|---0-------------|-----------------|-----------------|
|-------0-1---3-0-|-4---1-----------|-0---------------|-------1---------|
|---0-2-----------|-------2-0---2-0-|---2-0-------0---|-----0-----0-0---|
|-3---------------|-----------------|-------3-2-0---2-|-----2---2-------|
|-----------------|-----------------|-----------------|-3---------------|
|-----------------|-----------------|-----------------|-----------------|

  G7                                  C
  |   |   |   |     |   |   |   |     |   |   |   |     |   |   |   |   
|---4-5---1-------|-----------------|---2/3-0-0-----0-|-----------------|
|---5-6---3-----0-|-1/3---------0---|---4/5---1-----1-|-----------------|
|-----------------|-2/4---0---2-0---|-------------0---|-2-0-----0-2-0---|
|-----------------|-----------------|-----------------|-----2-3-------2-|
|-----------------|-----------------|-----------------|-----------------|
|-----------------|-----------------|-----------------|-----------------|

  G7                                  C
  |   |   |   |     |   |   |   |     |   |   |   |     |   |   |   |   
|-----------1-1---|-----------------|-----------------|-----------------|
|-------------0-0-|-----------------|-----------------|-----------------|
|-------0-----0-0-|-------0---2-----|---------0-2-0---|---------0-2-0---|
|-0-2-3-------3---|-0-2-3-------0-2-|---0-2-3-------2-|---0-2-3---------|
|-----------------|-----------------|-3---------------|-3---------------|
|-----------------|-----------------|-----------------|-----------------|

  G7                                  C
  |   |   |   |     |   |   |   |     |   |   |   |     |   |   |   |   
|-4/5-----1-------|-----------------|-2/3---0-0-----0-|-----------------|
|-5/6---0-3-----0-|-1/3-------1-0---|-4/5-----1-------|---------1-------|
|-----------------|-2/4---0---2-0---|-------------0---|-2-0---0-------0-|
|-----------------|-----------------|-----------------|-----2-----2-----|
|-----------------|-----------------|-----------------|-------------3---|
|-----------------|-----------------|-----------------|-----------------|

                                                             D.S. al Coda
  F       F#dim     C       A7        D7      G7        C             >>>
  |   |   |   |     |   |   |   |     |   |   |   |     |   |   |   |   
|-----------------|---0-------------|-----------------|-----------------|
|-------0-1---3-0-|-4---1-----------|-0---------------|-------1---------|
|---0-2-----------|-------2-0---2-0-|---2-0-------0---|-----0-0---------|
|-3---------------|-----------------|-------3-2-0---2-|-----2-----2-----|
|-----------------|-----------------|-----------------|-3-------3---0-1-|
|-----------------|-----------------|-----------------|-----------------|

Coda
  C       
  |   |   |   |    
|-------0-------0-|
|-------1---------|
|-----0-0---0-----|
|-----2---2---2---|
|-3---------------|
|-----------------|

  G7                                  C
  |   |   |   |     |   |   |   |     |   |   |   |     |   |   |   |   
|-1-3-1-0---------|-----------------|---0---0---------|-----------------|
|---------3-0-3-0-|---0---0-------0-|-4---4---1-----1-|-----------------|
|-----------------|-3---3---0-2-0---|-----------2-0---|-2-0-----0-2-0---|
|-----------------|-----------------|-----------------|-----2-3-------2-|
|-----------------|-----------------|-----------------|-----------------|
|-----------------|-----------------|-----------------|-----------------|

  G7                                  C
  |   |   |   |     |   |   |   |     |   |   |   |     |   |   |   |   
|-------------1-1-|-----------------|-----------------|-----------------|
|-----------0-0-0-|-----------------|-----------------|---------------0-|
|-------0-----0-0-|-------0---2-0---|---------0-2-0---|---------0-2-0---|
|-0-2-3-----------|-0-2-3--(0)----2-|---0-2-3-------2-|---0-2-3---------|
|-----------------|-----------------|-3---------------|-3---------------|
|-----------------|-----------------|-----------------|-----------------|

  G7                                  C
  |   |   |   |     |   |   |   |     |   |   |   |     |   |   |   |   
|-1-3-1-0---------|-----------------|---0---0---------|-----------------|
|---------3-0-3-0-|---0---0-------0-|-4---4---1-----1-|---------1-------|
|-----------------|-3---3---0-2-----|-----------2-0---|-2-0---0---0---0-|
|-----------------|-------------0---|-----------------|-----2-----------|
|-----------------|-----------------|-----------------|-------------3---|
|-----------------|-----------------|-----------------|-----------------|

  F       F#dim     C       A7        D7      G7        C
  |   |   |   |     |   |   |   |     |   |   |   |     |   |   |   |   
|-----------------|---0-------------|-----------------|-----0-0-0-------|
|-------0-1---3-0-|-4---1-----------|-0---------------|-----1-1---------|
|---0-2-----------|-------2-0---2-0-|---2-0-------0---|-----0-----------|
|-3---------------|-----------------|-------3-2-0---2-|-----------0-----|
|-----------------|-----------------|-----------------|-3-----------0-1-|
|-----------------|-----------------|-----------------|-----------------|

  G7                                  C
  |   |   |   |     |   |   |   |     |   |   |   |     |   |   |   |   
|-----------------|-----------------|-----------------|-----------------|
|-----------------|-----------------|-----------------|-----------------|
|-----0-----2-----|-0-----2---0-----|-----0-----2-----|-0-----2---0-----|
|---0---0-0-----0-|---0-0---------0-|---2-----2-----2-|-----2---------0-|
|-2-----------2---|---------2---2---|-3-----3-----3---|---3---------3---|
|-----------------|-----------------|-----------------|-----------------|

  G7                                  C
  |   |   |   |     |   |   |   |     |   |   |   |     |   |   |   |   
|-----------------|-----------------|-----------------|-----------------|
|-----------------|---------------0-|-1---------------|-----------------|
|-----0-----2-----|-0-----2---0---0-|-0---------------|-----------------|
|---0---0-0-----0-|---0-0---0---0---|-2---------------|-----------------|
|-2-----------2---|-----------------|-3---------------|-------------0-1-|
|-----------------|-----------------|-----------------|-----------------|

  G7                                  C
  |   |   |   |     |   |   |   |     |   |   |   |     |   |   |   |   
|-----------------|-----------------|-----------------|-----------------|
|-----------------|-----------------|-----------------|-----------------|
|-----0-----2-----|-0-----2---0-----|-----0-----2-----|-0-----2---0---0-|
|---0---0-0-----0-|---0-0---0-----0-|---2-----2-----2-|-----2-------2---|
|-2-----------2---|-------------2---|-3-----3-----3---|---3-------------|
|-----------------|-----------------|-----------------|-----------------|

  F       F#dim     C       A7        D7      G7        C
  |   |   |   |     |   |   |   |     |   |   |   |     |   |   |   |   
|-----------------|---0-------------|-----------------|-----------------|
|-------0-1---3-0-|-4---1-----------|-0---------------|-----------------|
|---0-2-----------|-------2-0-----0-|---2-0-------0---|-----------------|
|-3---------------|-------------0---|-------3-2-0---2-|-----------------|
|-----------------|-----------------|-----------------|-3-------3-------|
|-----------------|-----------------|-----------------|-----3-----------|

  N/C               F       C                               G7  C    
  |   |   |   |     |   |   |   |     |   |   |   |     |   |   |   |   
|-----------------|-----------------|-----------------|---------0-------|
|-----------------|-----------------|-------0-3-------|-----0---1-------|
|-----------------|-----------------|---0-2-----2-0---|-----0---0-------|
|-----------------|-------------0-1-|-2-------------2-|-0---3---2-------|
|-3---------------|---0-2---3-------|-----------------|-----2---3-------|
|-----3-3-4---1-2-|-3---------------|-----------------|---3-3---0-------|



Enjoy


-Bo Parker

"All the boys go, 'Hey Goo, what's new?'"
"And my friend Goo just goes, 'Peeee Yeeew!'"
"And my friend Goo just goes, 'Peeee Yeeew!'"





Comments


Popular Watson Doc tabs & chords
Deep River Blues Chords
Tennessee Stud Chords
Beaumont Rag Tabs
Deep River Blues Tabs
Tennessee Stud Tabs


Song lyrics



↑ Back to top | Tablatures and chords are parodies/interpretations of the original songs. You may use it for private study, scholarship, research or language learning purposes only
© 2014 AZChords.com Contact us | Privacy policy | DMCA | Add/correct tabs | Request tabs | Top 50 tabs