» » »

Watermark, Made For You Chords (ver.1)

Artists:  A B C D E F G H I J K L M N O P Q R S T U V W X Y Z # 

Made For You Chords (ver.1)

Watermark Tabs
 Rating:
4/5 (4 votes)
Made For You lessons Tabs too difficult? Try these video lessons and learn fast
1
                This is a great song!  Here is my take from
listening to the recording....

PLEASE RATE!!!




Capo 4

Man’s Verse:

   G6   A6
|--0----x--|
|--0----3--|
|--0----2--| (Repeat)
|--0----3--|
|--x----x--|
|--3----1--|

Woman’s Verse:


Fmaj7/A  C   G
---0-----0---3-|
---1-----1---0-|
--0h2----0---0-|
---3-----2---0-|
---0-----3---2-|
---x-----x---3-|

Chorus:

 E   F#m/E  Abm/E  Asus4/E  A/E  Am/E  Emaj7  Bsus7/F#
-0-----x------x------x------x-----x-----0-------2----|
-0-----x------x------x------x-----x-----0-------5----|
-1-----2------4------7------6-----5-----1-------2----|
-2-----4------6------7------7-----7-----1-------4----|
-2-----4------6------7------7-----7-----2-------2----|
-0-----0------0------0------0-----0-----0-------2----|


 G   Bsus4   E2   am2
--3-----2-----0----0--|
--0-----5-----0----1--|
--0-----2-----1----4--|
--0-----4-----4----2--|
--2-----2-----2----0--|
--3-----x-----0----x--|


Female Bridge:


 Cm  G/B       Am  Am/G  D2/F#  Esus4
--3----3---  --0----0-----0------0--|
--4----0---  --1----1-----3------0--|
--5----0---  --2----2-----2------2--|
--5----0---  --2----2-----0------2--|
--3----2---  --0----0-----x------2--|
--x----x---  --x----3-----2------0--|


Outro/Coda:

  G  Bsus4    D/F#  Am7/F  E2(sus)  E
--3----2--  --2------0-------0-----0---|
--0----5--  --3------1-------0-----0---|
--0----2--  --2------0-------2-----1---|
--0----4--  --0------2-------4-----2---|
--2----2--  --x------0-------2-----2---|
--3----x--  --2------1-------0-----0---|
            
Submit corrections

comments powered by Disqus
↑ Back to top | Watermark Chords for Made For You. Lyrics for acoustic guitar and electric guitar. 1 Tablatures and chords are parodies/interpretations of the original songs. You may use it for private study, scholarship, research or language learning purposes only