» » »

Watermark, Mended Tabs (ver.1)

Artists:  A B C D E F G H I J K L M N O P Q R S T U V W X Y Z # 

Mended Tabs (ver.1)

Watermark Tabs
 Rating:
4/5 (4 votes)
Mended lessons Tabs too difficult? Try these video lessons and learn fast
1
                D# C# G# F# A# D#

Intro - Repeat 1x
E|-----------------------0--------------------------------|
B|-----------1--3-----3-----3--1-----------1--3-----3-----|
G|--------4--------0--------------------4--------0-----0--|
D|-----2-----------------------------2--------------------|
A|--0-----------3-----------------0-----------3-----------|
E|--------------------------------------------------------|

E|-----------------------0--------------0--------|--|
B|-----------1--3-----3-----3--1--------1--------|--|
G|--------4--------0-----------------2-----2-----|--|
D|-----2--------------------------3-----------3--|--|
A|--0-----------3--------------------------------|--|
E|-----------------------------------------------|--|

Verse
E|------------------------------------------|
B|-----------1--3-------------1--3----------|
G|--------4----------------4--------0-------|
D|-----2----------------2-------------------|
A|--0-----------3----0-----------3-----3----|
E|------------------------------------------|
   You repair...
E|-------------------------0-----------0-----|
B|-----------1--3----------1-----------1-----|
G|--------4-------------2-----2-----2-----2--|
D|-----2-------------3-----------3-----------|
A|--0-----------3----------------------------|
E|-------------------------------------------|

E|-------------------------------------------------|
B|-----------1--3-----3----------------1--3-----1--|
G|--------4--------0-----0----------4--------0-----|
D|-----2-------------------------2-----------------|
A|--0-----------3-------------0-----------3--------|
E|-------------------------------------------------|
   We stand greatful...

E|-------------------------------0--------|
B|-----------1--3-----1----------1--------|
G|--------4--------0----------2-----2-----|
D|-----2-------------------3-----------3--|
A|--0-----------3-------------------------|
E|----------------------------------------|
  and all that goes...

Chorus                       (2x)
E|--------3-----------3----|---------3-----------3----|-------1-----3-------|
B|--------1-----------1----|---------1-----------1----|-------1-----1--1--0-|
G|-----0-----0-----0-----0-|------0-----0-----0-----0-|----2-----2----------|
D|-------------------------|-2h3-----------2----------|-0-------------------|
A|--3-----------3----------|--------------------------|---------------------|
E|-------------------------|--------------------------|---------------------|
                             (2x)
E|--------3-----------3----|---------3-----------3----|--------3-----1--|
B|--------1-----------1----|---------1-----------1----|--------1-----1--|
G|-----0-----0-----0-----0-|------0-----0-----0-----0-|-----0-----0-----|
D|-------------------------|-2h3-----------2----------|--3--------------|
A|--3-----------3----------|--------------------------|-----------------|
E|-------------------------|--------------------------|-----------------|
            
Submit corrections

comments powered by Disqus
↑ Back to top | Watermark Tabs for Mended. Lyrics for acoustic guitar and electric guitar. 1 Tablatures and chords are parodies/interpretations of the original songs. You may use it for private study, scholarship, research or language learning purposes only