» » »

Tormentor Tabs (ver.1)

Artists:  A B C D E F G H I J K L M N O P Q R S T U V W X Y Z # 

Tormentor Tabs (ver.1)

W.A.S.P.
Rating:
0/5 (0 votes)
Tabs too difficult? Try these video lessons and learn fast.
                ---------------------------------------|

Tuning:half step two guitars
gtr 1 intro/chourus
e|-----------------------------------------------------------|
B|-----------------------------------------------------------|
G|-----------------------------------------------------------|
D|-9--7---12-11---7/9---5---7----9--7---12-11--7/9----5---7--|
A|-7--5---10-9----5/7---3---5----7--5---10-9---5/7----3---5--|
E|-----------------------------------------------------------|
gtr2 inrto
e|-------------9----10-----12-----------------------------------------------------------|
B|---------------11~---12~----14~-------------------------------------------------------|
G|-7-7-5--9~----------------------------------------------------------------------------|
D|-7-7-5--9~----------------------------------------------------------------------------|
A|--------------------------------------------------------------------------------------|
E|--------------------------------------------------------------------------------------|
main riff
e|----------------------------------------------------------------|
B|----------------------------------------------------------------|
G|----------------------------------------------------------------|
D|---7-7--5-----------------------------------------------7-7--5--|
A|---5-5--3-----------------------------------------------5-5--3--|Iam a liar iam a cheat 
E|----------------------------------------------------------------|i have no morals i am a thief 
                                                                   pilage and plunder curse 
                                                                   those who enter


e|--------------|
B|--------------|
G|--------------|
D|--7--5--7--7--|
A|--5--3--5--9--|
E|--------------|im tormentor


note
then repeat the first guitar inrto for the chrous and the solo is usually when Randy 
Piper and Chris Holmes shred a solo which changes live while Blackie Lawless tosses meat 
and the torture rack is introduced have fun with this great w.a.s.p. song

************************************

| /   slide up
| \   slide down
| h   hammer-on
| p   pull-off
| ~   vibrato
| +   harmonic
| x   Mute note
| b   Bend
| pb  Pre-bend
| br  Bend release
| pbr Pre-bend release
| brb Bend release bend

************************************
            
Tabs too difficult? Try these video lessons and learn fast.


comments powered by Disqus
↑ Back to top | Tablatures and chords are parodies/interpretations of the original songs. You may use it for private study, scholarship, research or language learning purposes only