» » »

W.A.S.P., Animal (Fuck Like A Beast) Bass tabs (ver.1)

Artists:  A B C D E F G H I J K L M N O P Q R S T U V W X Y Z # 

Animal (Fuck Like A Beast) Bass tabs (ver.1)

W.A.S.P. Tabs
 Rating:
4/5 (4 votes)
Animal (Fuck Like A Beast) lessons Tabs too difficult? Try these video lessons and learn fast
                -------------------------------------------------------------------------------
			     Animal f**k Like a Beast - W.A.S.P
-------------------------------------------------------------------------------


Tuning: drop D - DADG

INTRO (Only play inital 3-2-0 part once on the first intro)
G|[-------]---------------------------------------------------|
D|[-------]---------------------------------------------------|
A|[-------]-----------7----------5----------5-4-5-7-54--------|
D|[-3-2-0-]---000000-----000000-----000000-------------55-----|x2

VERSE
G|------------------------------------------------------------|
D|------------------------------------------------------------|
A|-----------7----------5----------5-4-5-7-54-----------------|
D|---000000-----000000-----000000-------------55--------------|x3

G|------------------------------------------------------------|
D|------------------------------------------------------------|
A|-----------7----------5-------------------------------------|
D|---000000-----000000----------------------------------------|

FILL
G|------------------------------------------------------------|
D|------------------------------------------------------------|
A|------------------------------------------------------------|
D|--0-333--0-555--0-3-0---------------------------------------|

CHORUS
G|------------------------------------------------------------|
D|------------------------------------------------------------|
A|--777-777-777------55--0~~---------777-777-777------55--0~~-|
D|---------------33-------------------------------33----------|x2

G|------------------------------------------------------------|
D|------------------------------------------------------------|
A|--------------55--0~~---------------------------------------|
D|----------33------------------------------------------------|

VERSE
G|------------------------------------------------------------|
D|------------------------------------------------------------|
A|-----------7----------5----------5-4-5-7-54-----------------|
D|---000000-----000000-----000000-------------55--------------|x3

G|------------------------------------------------------------|
D|------------------------------------------------------------|
A|-----------7----------5-------------------------------------|
D|---000000-----000000------------------0-333--0-555-0-3-0----|

CHORUS
G|------------------------------------------------------------|
D|------------------------------75----------------------------|
A|--777-777-777------55--0~~-------75-------------------------|
D|---------------33-------------------75----------------------|x3

G|------------------------------------------------------------|
D|------------------------------------------------------------|
A|------5---0~~-------5~--5~----------------------------------|
D|--3-------------3~----------3~------------------------------|

G|------------------------------------------------------------|
D|------------------------------------------------------------|
A|------------------------------------------------------------|
D|--777777777777777---7777777777777777\9999999999999999-------|

SOLO
G|------------------------------------------------------------|
D|------------------------------------------------------75----|
A|-777-777-777------55--0~~---777-777-777------55--0~~----75--|
D|--------------33-------------------------33---------------75|

CHORUS
G|------------------------------------------------------------|
D|------------------------------75----------------------------|
A|--777-777-777------55--0~~-------75-------------------------|
D|---------------33-------------------75----------------------|x3

END
G|------------------------------------------------------------|
D|------------------------------------------------------------|
A|--777-777-777------55--0~~----------------------------------|
D|---------------33---------------------33--------------------|

right thats everything and ive even put it in order for you. i seriously could not believe that 

this classic W.A.S.P face melter hadnt been tabbed on bass anywhere on the net (and trust me ive 

looked!!) so i thought id give it a bash myself. although it sounds pretty good  im sure there 


and as such Ive Drop D tuned the bass to give it that heavier, dirtier sound, but if your too 

lazy to tune it down it sounds ok on normal tuning as well.

anyways hope you guys enjoy playin this song as much as i do

shaft (WASP_God)

| /  slide up
| \  slide down
| h  hammer-on
| p  pull-off
| ~  hold the note
| +  harmonic
| x  Mute note
===============================================================================
            
Submit corrections

comments powered by Disqus
↑ Back to top | W.A.S.P. Bass for Animal (Fuck Like A Beast). Lyrics for acoustic guitar and electric guitar. Tablatures and chords are parodies/interpretations of the original songs. You may use it for private study, scholarship, research or language learning purposes only