» » »

Washya, Sunrise Tabs (ver.2)

Artists:  A B C D E F G H I J K L M N O P Q R S T U V W X Y Z # 

Sunrise Tabs (ver.2)

Washya Tabs
Rating:
0/5 (0 votes)
Sunrise lessons Tabs too difficult? Try these video lessons and learn fast
                -----------------------------------------------------------------------------
                          Sunrise - Washya
-----------------------------------------------------------------------------
Tuning: Standard (ebgDAE)
Intro D,
e|-2-----2-------2-------2---2-2-------2-------|
b|-3---3---3---3---3---3---3-3---3---3---3---3-|
g|-2-2-------2-------2-------2-----2-------2---|
D|---------------------------------------------|
A|---------------------------------------------|
E|---------------------------------------------|

Verses
e|-----------------------------------------------------------|
b|-----------------------------------------------------------|
g|-----------------------------------------------------------|
D|-----------------------------------------------------------|
A|-33332-33332--3333-3333-33332-33332-33332--3333-3333-33332-|
E|-11110-11110--1111-1111-11110-11110-11110--1111-1111-11110-|

Chorus (play palm muted 2nd time around)
e|-------------------------------------------------------------------------|
b|-------------------------------------------------------------------------|
g|-------------------------------------------------------------------------|
D|-5-5555------------------------------3-7-7777--------3-3333--------------|
A|-3-3333-5-5555-8-8888-3-3333-5-555-2-1-5-5555-5-5555-1-1111-3-333-5-5557-|
E|--------3-3333-6-6666-1-1111-3-333-0----------3-3333--------1-111-3-3335-|
            

comments powered by Disqus
↑ Back to top | Washya Tabs for Sunrise. Lyrics for acoustic guitar and electric guitar. Tablatures and chords are parodies/interpretations of the original songs. You may use it for private study, scholarship, research or language learning purposes only