» » »

Washya, Infestation Tabs (ver.1)

Artists:  A B C D E F G H I J K L M N O P Q R S T U V W X Y Z # 

Infestation Tabs (ver.1)

Washya Tabs
Rating:
0/5 (0 votes)
Infestation lessons Tabs too difficult? Try these video lessons and learn fast
                
Tuning: Drop C (CGCfad)
Intro

D|---------------------------------------------------------|
A|---------------------------------------------------------|
F|---------------------------------------------------------|
C|-------------1-------------3-------------2-3-5-3-2-3-2-0-|
G|-------------1-------------3-------------2-3-5-3-2-3-2-0-|
C|-0--0-0-0--0-1-0--0-0-0--0-3-0--0-0-0--0-2-3-5-3-2-3-2-0-| x3
pm .  . . .  .   .  . . .  .   .  . . .  . 



Verses
D|-----------------------------------------------------------|
A|-----------------------------------------------------------|
F|-----------------------------------------------------------|
C|-------------------------------------------5/7-------8\6---|
G|-------------------------------------------3/5-------6\4---|
C|-2-2-2-2-2-2-0-0-0-0-3-3-3-3-4-4-4-4-1-1-1-----2-2-2-------|
pm . . . . . . . . . . . . . . . . . . . . .     . . .  

Guitar Solo
D|---------------------------------------------------------------|
A|---------------------------------------------------------------|
F|---------------------------------------------------------------|
C|-9-9-9h10p9--7h9p7-6h7p6---3-4-6p2-2h3p0-----2---2-0-2---2-0---|
G|-------------------------4---------------0-2---0-------0-----2-|
C|---------------------------------------------------------------|

D|-------------------------------------------------------------------|
A|--------------------------------------14-14h15p14------------------|
F|-----------------------10-10h11p10-12---------------7-7h8p7-5h6p5--|
C|---5-5h6p5---6-6h7p7-8----------------------------9----------------|
G|-3---------4-------------------------------------------------------|
C|-------------------------------------------------------------------|

D|------8-8h9p8-----------------------------------------------------------|
A|-7~-7---------6---------------------------------------------------------|
F|----------------4h5p3---------------------------------2---2-0-2---2-----|
C|----------------------2---2-2---0-2-2---2-0-2-----2-0---0-------0-------|
G|------------------------0-----0-------2---------2-----------------------|
C|----------------------------------------------0-------------------------|
            

comments powered by Disqus
↑ Back to top | Washya Tabs for Infestation. Lyrics for acoustic guitar and electric guitar. Tablatures and chords are parodies/interpretations of the original songs. You may use it for private study, scholarship, research or language learning purposes only