» » »

Bad To The Bone Bass tabs (ver.1)

Artists:  A B C D E F G H I J K L M N O P Q R S T U V W X Y Z # 

Bad To The Bone Bass tabs (ver.1)

Washya
Rating:
0/5 (0 votes)

Hard to play? Try these video lessons and learn fast.
                Bad to the Bone Bass Tab (Drop C)
intro

A|---------------------------------------------------------------------|
D|---------------------------------------------------------------------|
C|---------------------------------------------------------------------|
G|-0-0-0-0---0-0-0---0-0-0-0---0-0---0-0-0-0-x-x-x--x-x-x--------------|
pm . . . .   . . .   . . . .   . .   . . . . 

Main Riff
A|--------------------------------------------------------------|
D|--------------------------------------------------------------|
C|-------5-5-5-7-7-7-9-9-9-1-1-1-------------------3-3---3------|
G|-2-2-2-------------------------1-1-1-1-1-2-2-1-1-----3--------|

During Solo
A|----------------------------------------------------------------|
D|-------------------------------------------7-------8------------|
C|-1-1-1-2-3---5---7-1-2-1-3-1-2---8---7---7---7---7---8-8-8------|
G|-----------4---6---------------8---8---7-------7----------------|
            
Hard to play? Try these video lessons and learn fast. | Correct




comments powered by Disqus
↑ Back to top | Tablatures and chords are parodies/interpretations of the original songs. You may use it for private study, scholarship, research or language learning purposes only