» » »

Washya, Bad To The Bone Tabs (ver.1)

Artists:  A B C D E F G H I J K L M N O P Q R S T U V W X Y Z # 

Bad To The Bone Tabs (ver.1)

Washya Tabs
 Rating:
4/5 (4 votes)
Bad To The Bone lessons Tabs too difficult? Try these video lessons and learn fast
                -------------------------------------------------------------------------------
-------------------------------------------------------------------------------

Tuning:
Intro
F|-------------------------------------------------------------------|
A|-------------------------------------------------------------------|
D|-------------------------------------------------------------------|
C|-------------------------------------------------------------------|
G|-------------------------------------------------------------------|
C|-0-0-0-0-0--0-0-0--0-0-0-0-0--0-0-0--0-0---------------------------|
pm . . . . .  . . .  . . . . .  . . .  . . 


Main Riff
F|----------------------------------------------------------------|
A|--------------------------------------------------------------7-|
D|--------------7-3---3-5-7-----3-5-7-9-------------7-3---3-5-7-7-|
C|-7-3---3-5-7------5-------5-3---------7-3---3-5-7-----5-------5-|
G|-----5------------------------------------5---------------------|
C|----------------------------------------------------------------|


Verses
F|---------------------------------------------------------------|
A|---------------------------------------------------------------|
D|------------------------------------------7-7h8p7--------------|
C|----------------------1-1-1-------3-3-5/9---------9-5\3-5------|
G|-5h6~-3h5~-1h3~-0-1-0-1-1-1-3-3-5-----------------------5------|
C|----------------------1-1-1-----------------------------5------|
pm . .  . .  . .  . . . 

Back To Main Riff
F|----------------------------------------------------------------|
A|----------------------------------------------------------------|
D|--------------7-3---3-5-7-----3-5-7-9-------------7-3---3-5-7-7-|
C|-7-3---3-5-7------5-------5-3---------7-3---3-5-7-----5-------7-|
G|-----5------------------------------------5-------------------5-|
C|----------------------------------------------------------------|

Interlude
F|-0-7-8-0-3-5-0-5-6-0-3-2-0-5---0-3-5-0-7-9-0-12-9-0-7----|
A|-----------------------------7------------------------9--|
D|---------------------------------------------------------|
C|---------------------------------------------------------|
G|---------------------------------------------------------|
C|---------------------------------------------------------|

Solo (Played Fast)
F|------------------------------------------------------------------------|
A|--------------------------------------------------------9-11-12-9-11-12-|
D|----------------------------------------9-11-12-9-11-12-----------------|
C|-------------------------5-7-8-5-7-8/10---------------------------------|
G|-------------4-6-7-4-6-7------------------------------------------------|
C|-3-5-6-3-5-6------------------------------------------------------------|
pm . . . . . . . . . . . . 
                   
F|-12-14-15-12-14-15~~--15h20p18p15-19b-19b~-----------------|
A|-----------------------------------------------------------|
D|-----------------------------------------------------------|
C|-----------------------------------------------------------|
G|-----------------------------------------------------------|
C|-----------------------------------------------------------|

F|-------------------------------------------16~~----------------|
A|-------------------------------------11-13---------------------|
D|----------------------------11-13-14---------------------------|
C|-------------------11-12-13------------------------------------|
G|----------11-13-14---------------------------------------------|
C|-11-13-14------------------------------------------------------|
pm .   .  .  .  .  .  .  .  .  .  .  .  .       

play VERY fast many times!!               
F|-16-13----13-16-13-------16-13----13-16-13----------------------13~--|
A|-------16----------16----------16----------16-------------13-16------|
D|----------------------15----------------------15-13-15-16------------|
C|---------------------------------------------------------------------|
G|---------------------------------------------------------------------|
C|---------------------------------------------------------------------|
            
Submit corrections

comments powered by Disqus
↑ Back to top | Washya Tabs for Bad To The Bone. Lyrics for acoustic guitar and electric guitar. Tablatures and chords are parodies/interpretations of the original songs. You may use it for private study, scholarship, research or language learning purposes only