» » »

Wash, Six Oclock Bass tabs (ver.1)

Artists:  A B C D E F G H I J K L M N O P Q R S T U V W X Y Z # 

Six Oclock Bass tabs (ver.1)

Wash Tabs
 Rating:
4/5 (4 votes)
Six Oclock lessons Tabs too difficult? Try these video lessons and learn fast
1
                

Tuning: Drop D


Intro
G|--------------------------------|
D|--------------------------------|
A|--------------------------------|
D|-6666-6-6-66666--6666-6-6-66666-|  

Chorus
G|----------------------|----------------------|----------------------|------------------|
D|----------------------|----------------------|----------------------|------------------|
A|-5-1-3--3\------------|-5-1-3--3\------------|-5-1-3--3\------------|-5-1-3--3\--------|
D|------------3-5-6--6\-|------------3-5-6--6\-|------------3-5-6--6\-|------------3-5-6-|

Post Chorus
G|----------------------------|
D|----------------------------|
A|-5---3----------------------|
D|--------------3---6---------|

Verse
G|---------------------|---------------------|---------------------|---------------------|
D|---------------------|---------------------|---------------------|---------------------|
A|-----------------5---|-----------------5---|-----------------5---|---------------------|
D|-4-6-6-6-6-0-0-0---0-|-4-6-6-6-6-0-0-0---0-|-4-6-6-6-6-0-0-0---0-|-4-6-6-6-6-0-0-0-0---|

Bridge
G|---------------------------------------------------------|
D|----------------------7-6-7------------------------------|
A|-5-----------5---5-------------5-----------5---5---------|
D|---------------------------------------------------1-3-1-| 

Not sure exactly what bass does during bridge but this sounds close enough.



Final Chorus
G|----------------------|----------------------|----------------------|----------------------|
D|----------------------|----------------------|----------------------|----------------------|
A|-5-1-3--3\------------|-5-1-3--3\------------|-5-1-3--3\------------|-5-1-3--3\------------|
D|------------3-5-6--6\-|------------3-5-6--6\-|------------3-5-6--6\-|------------3-5-6--6\-|

 |----------------------|------------------|
 |----------------------|------------------|
 |-5-1-3--3\------------|-5-1-3--3\--------|
 |------------3-5-6--6\-|------------3-5-6-|

Outro
G|------||
D|------||
A|------||
D|-0----|| 



SONG STRUCTURE

Intro (x2)
Verse (x2)
Chorus
Intro (x2)
Verse (x2)
Chorus
Post Chorus (x2)
[Bridge (x2) guitar only]
Bridge (x2)
Final Chorus
Intro (x2)
Outro
            
Submit corrections

comments powered by Disqus
↑ Back to top | Wash Bass for Six Oclock. Lyrics for acoustic guitar and electric guitar. 1 Tablatures and chords are parodies/interpretations of the original songs. You may use it for private study, scholarship, research or language learning purposes only