» » »

Wash, Six Oclock Tabs (ver.1)

Artists:  A B C D E F G H I J K L M N O P Q R S T U V W X Y Z # 

Six Oclock Tabs (ver.1)

Wash Tabs
 Rating:
4/5 (4 votes)
Six Oclock lessons Tabs too difficult? Try these video lessons and learn fast
                

Tuning: Drop D


Intro
e|--------------------------------|
B|--------------------------------|
G|--------------------------------|
D|--------------------------------|
A|-6666-5-5-55558--5555-6-6-66666-|
D|-6666-6-6-66666--6666-6-6-66666-|  

Chorus
e|----------------------|----------------------|----------------------|------------------|
B|----------------------|----------------------|----------------------|------------------|
G|-7-3-5--5\------------|-7-3-5--5\------------|-7-3-5--5\------------|-7-3-5--5\--------|
D|-7-3-5--5\--3-5-6--6\-|-7-3-5--5\--3-5-6--6\-|-7-3-5--5\--3-5-6--6\-|-7-3-5--5\--3-5-6-|
A|-5-1-3--3\--3-5-6--6\-|-5-1-3--3\--3-5-6--6\-|-5-1-3--3\--3-5-6--6\-|-5-1-3--3\--3-5-6-|
D|------------3-5-6--6\-|------------3-5-6--6\-|------------3-5-6--6\-|------------3-5-6-|  

Post Chorus
e|----------------------------|
B|----------------------------|
G|-7---5----------------------|
D|-7---5--------3---6---------|
A|-5---3--------3---6---------|
D|--------------3---6---------|

Verse
e|---------------------|---------------------|---------------------|---------------------|
B|---------------------|---------------------|---------------------|---------------------|
G|---------------------|---------------------|---------------------|---------------------|
D|-4-6-6-6-6-0-0-0-7-0-|-4-6-6-6-6-0-0-0-7-0-|-4-6-6-6-6-0-0-0-7-0-|-4-6-6-6-6-0-0-0-0---|
A|-4-6-6-6-6-0-0-0-5-0-|-4-6-6-6-6-0-0-0-5-0-|-4-6-6-6-6-0-0-0-5-0-|-4-6-6-6-6-0-0-0-0---|
D|-4-6-6-6-6-0-0-0---0-|-4-6-6-6-6-0-0-0---0-|-4-6-6-6-6-0-0-0---0-|-4-6-6-6-6-0-0-0-0---|

 
Bridge
e|---------------------------------------------------------------|
B|---------------------------------------------------------------|
G|-------7-------------------------------7-----------------------|
D|---7-----7---------7-7-6-6-7-7-----7-----7---------------------|
A|-5-----------5---5---------------5-----------5---5-------------|
D|---------------------------------------------------1-1-3-3-1-1-|

Final Chorus
e|----------------------|----------------------|----------------------|----------------------|
B|----------------------|----------------------|----------------------|----------------------|
G|-7-3-5--5\------------|-7-3-5--5\------------|-7-3-5--5\------------|-7-3-5--5\------------|
D|-7-3-5--5\--3-5-6--6\-|-7-3-5--5\--3-5-6--6\-|-7-3-5--5\--3-5-6--6\-|-7-3-5--5\--3-5-6--6\-|
A|-5-1-3--3\--3-5-6--6\-|-5-1-3--3\--3-5-6--6\-|-5-1-3--3\--3-5-6--6\-|-5-1-3--3\--3-5-6--6\-|
D|------------3-5-6--6\-|------------3-5-6--6\-|------------3-5-6--6\-|------------3-5-6--6\-|  

 |----------------------|------------------|
 |----------------------|------------------|
 |-7-3-5--5\------------|-7-3-5--5\--------|
 |-7-3-5--5\--3-5-6--6\-|-7-3-5--5\--3-5-6-|
 |-5-1-3--3\--3-5-6--6\-|-5-1-3--3\--3-5-6-|
 |------------3-5-6--6\-|------------3-5-6-|  

Outro
e|------||
B|------||
G|------||
D|-0----||
A|-0----||
D|-0----||



SONG STRUCTURE

Intro (x2)
Verse (x2)
Chorus
Intro (x2)
Verse (x2)
Chorus
Post Chorus (x2)
Bridge (x4)
Final Chorus
Intro (x2)
Outro
            
Submit corrections

comments powered by Disqus
↑ Back to top | Wash Tabs for Six Oclock. Lyrics for acoustic guitar and electric guitar. Tablatures and chords are parodies/interpretations of the original songs. You may use it for private study, scholarship, research or language learning purposes only