» » »

Warrior Soul, Love Destruction Tabs (ver.2)

Artists:  A B C D E F G H I J K L M N O P Q R S T U V W X Y Z # 

Love Destruction Tabs (ver.2)

Warrior Soul Tabs
 Rating:
4/5 (4 votes)
Love Destruction lessons Tabs too difficult? Try these video lessons and learn fast
                Taken from the album Salutations From the Ghetto Nation


Legend:

t tie note over to note in ()
h hammer om
p pull off
s slide up or down
b bend note up to note in ()

First of all, tune your guitar up a semitone. The tab is written for a guitar
tuned in this manner. If you put a capo on the first fret, then play everything
one fret higher than written. As always listen to the record for the rhythm.

Bass intro for 4 measures, then

F |--------------------|---------|
C |--------------------|    //   |
G#|--------------------| 1 // 11 |
D#|-7h10p7s5-7---5-7-5-|  //     |
A#|----------0-0-0-0-0-| //      |
F |--------------------|---------|


F |--------------------------------|
C |--------------------------------|
G#|-2-5-7--7-7-7-7--2-5------------|
D#|-2-5-7--7-7-7-7--2-5-5--5-5-5-5-|
A#|-0-3-5--5-5-5-5--0-3-5--5-5-5-5-|
F |---------------------3--3-3-3-3-|


F |--------------------|--------|
C |--------------------|    //  |
G#|--------------------| 1 // 7 |
D#|-7h10p7s5-7---5-7-5-|  //    |
A#|----------0-0-0-0-0-| //     |
F |--------------------|--------|


F |--------------------------------|
C |--------------------------------|
G#|-2-5-7--7-7-7-7--2-5------------|
D#|-2-5-7--7-7-7-7--2-5-5--5-5-5-5-|
A#|-0-3-5--5-5-5-5--0-3-5--5-5-5-5-|
F |---------------------3--3-3-3-3-|


F |--------------------------------|
C |--------------------------------|
G#|-2-5-7--7-7-7-7--2-5------------|
D#|-2-5-7--7-7-7-7--2-5-5--5-5-5-5-|
A#|-0-3-5--5-5-5-5--0-3-5--5-5-5-5-|
F |---------------------3--3-3-3-3-|


F |-----------------------------------|--------|
C |-----------------------------------|    //  |
G#|-----------------------------------| 1 // 3 |
D#|-7--7-7-7--7-7-7--7-7-7-7-7-7--3-5-|  //    |
A#|-7--7-7-7--7-7-7--7-7-7-7-7-7--3-5-| //     |
F |-5--5-5-5--5-5-5--5-5-5-5-5-5--1-3-|--------|


F |-------------------------------------------|
C |-------------------------------------------|
G#|-------------------------------------------|
D#|-7--7-7-7--7-7-7--7-7-7-7-7-7--3-3-3-3-3-3-|
A#|-7--7-7-7--7-7-7--7-7-7-7-7-7--3-3-3-3-3-3-|
F |-5--5-5-5--5-5-5--5-5-5-5-5-5--1-1-1-1-1-1-|


F |--------------------|---------|
C |--------------------|    //   |
G#|--------------------| 1 // 11 |
D#|-7h10p7s5-7---5-7-5-|  //     |
A#|----------0-0-0-0-0-| //      |
F |--------------------|---------|


F |--------------------------------|
C |--------------------------------|
G#|-2-5-7--7-7-7-7--2-5------------|
D#|-2-5-7--7-7-7-7--2-5-5--5-5-5-5-|
A#|-0-3-5--5-5-5-5--0-3-5--5-5-5-5-|
F |---------------------3--3-3-3-3-|


F |--------------------------------|
C |--------------------------------|
G#|-2-5-7--7-7-7-7--2-5------------|
D#|-2-5-7--7-7-7-7--2-5-5--5-5-5-5-|
A#|-0-3-5--5-5-5-5--0-3-5--5-5-5-5-|
F |---------------------3--3-3-3-3-|


F |-----------------------------------|--------|
C |-----------------------------------|    //  |
G#|-----------------------------------| 1 // 3 |
D#|-7--7-7-7--7-7-7--7-7-7-7-7-7--3-5-|  //    |
A#|-7--7-7-7--7-7-7--7-7-7-7-7-7--3-5-| //     |
F |-5--5-5-5--5-5-5--5-5-5-5-5-5--1-3-|--------|


F |-------------------------------------------|
C |-------------------------------------------|
G#|-------------------------------------------|
D#|-7--7-7-7--7-7-7--7-7-7-7-7-7--3-3-3-3-3-3-|
A#|-7--7-7-7--7-7-7--7-7-7-7-7-7--3-3-3-3-3-3-|
F |-5--5-5-5--5-5-5--5-5-5-5-5-5--1-1-1-1-1-1-|


F |--------------------|----------------|
C |--------------------|----------------|
G#|--------------------|----------------|
D#|-7h10p7s5-7---5-7-5-|-7h10p7s5-7-3-5-|
A#|----------0-0-0-0-0-|----------0-3-5-|
F |--------------------|------------1-3-|


F |----------------------|------------------|
C |----------------------|------------------|
G#|----------------------|------------------|
D#|-7-7h10p7s5-7---5-7-5-|-7h10p7s5-7-3-5-7-|
A#|-0----------0-0-0-0-0-|----------0-3-5-7-|
F |----------------------|------------1-3-5-|


F |------------------------|--------------------|
C |------------------------|--------------------|
G#|-5----------------------|--------------------|
D#|-5-5-7h10p7s5-7---5-7-5-|-7h10p7s5-7---5-7-5-|
A#|-3-5----------0-0-0-0-0-|----------0-0-0-0-0-|
F |---3--------------------|--------------------|


F |----------|
C |----------|
G#|----5-----| The the solo, which I don't know.
D#|-7--5--5--|
A#|-7--3--5--|
F |-5-----3--|


F |------------------------------------|
C |------------------------------------|
G#|------------------------------------|
D#|-7--3-5-7--3-5-7--3-5-7-3-3-3-3-3-3-|
A#|-7--3-5-7--3-5-7--3-5-7-3-3-3-3-3-3-|
F |-5--1-3-5--1-3-5--1-3-5-1-1-1-1-1-1-|

Bass intro for 2 measures.


F |--------------------|--------|
C |--------------------|    //  |
G#|--------------------| 1 // 2 |
D#|-7h10p7s5-7---5-7-5-|  //    |
A#|----------0-0-0-0-0-| //     |
F |--------------------|--------|


F |----------------|----------------------|--------|
C |----------------|----------------------|    //  |  
G#|----------------|----------------------| 2 // 3 |
D#|-7h10p7s5-7-3-5-|-7-7h10p7s5-7---5-7-5-|  //    |
A#|----------0-3-5-|-0----------0-0-0-0-0-| //     |
F |------------1-3-|----------------------|--------|


F |--------------|
C |--------------|
G#|--------------| End.
D#|-7h10p7s5--7--|
A#|-----------0--|
F |--------------|

Keywords:
            
Submit corrections

comments powered by Disqus
↑ Back to top | Warrior Soul Tabs for Love Destruction. Lyrics for acoustic guitar and electric guitar. Tablatures and chords are parodies/interpretations of the original songs. You may use it for private study, scholarship, research or language learning purposes only