» » »

War Of Ages, Instrumental Tabs (ver.1)

Artists:  A B C D E F G H I J K L M N O P Q R S T U V W X Y Z # 

Instrumental Tabs (ver.1)

War Of Ages Tabs
Rating:
5/5 (2 votes)
Instrumental lessons Tabs too difficult? Try these video lessons and learn fast
                Tuning: Drop C


|-----------------------------------------------------------------------------------|
|-/13-11-10-11~-10----10-----------------/13-11-10-11~-10----11/13-10~--10h11-10~---|
|------------------12----10~-------10h12------------------12------------------------| 
|----------------------------10h12--------------------------------------------------|
|-----------------------------------------------------------------------------------|
|-----------------------------------------------------------------------------------|

|------------------------------------------------------10-10~-/12-/13~--------------|
|-/13-11-10-11~-10----10-----------------11-10--------------------------------------|
|------------------12----10~-------10h12------12-9--10------------------------------| 
|----------------------------10h12--------------------------------------------------|
|-----------------------------------------------------------------------------------|
|-----------------------------------------------------------------------------------| 


|-----------------------------------------------------------------|
|-----------------------------------------------------------------|
|-----------------------------------------------------------------|
|-/12~-15-14-10-12--------------------10~------------10-10~-------|
|-----------------12-10~--8-10-10/12-----8-10-10/12---------------|
|-----------------------------------------------------------------|

------------------------------------------------------------------------|
|---------------------------------------------------10-13-13b-13~-15~---|
|-------------------------12-12b-12p10-12-12~-10-12---------------------|
|-/12~-15-14-10-12------------------------------------------------------|
|-----------------12-10~------------------------------------------------|
|-----------------------------------------------------------------------|


|-15t-8-10-13t-10-8-15t-8-17t-8-10-15t-10-8-13-8-----|
|---------------------------------------------------|
|---------------------------------------------------|
|---------------------------------------------------|
|---------------------------------------------------|
|---------------------------------------------------|

|-20t-13-15-17t-15-13-20t-13-20tb-13-15-20t-15-13----------|
|----------------------------------------------------------|
|----------------------------------------------------------|
|----------------------------------------------------------|
|----------------------------------------------------------|
|----------------------------------------------------------|

|-15t-8-10-13t-10-8-15t-8-17t-8-10-15t-10-8-13-8-13t-8-10-12t-10-8-12t-10-8~-----|
|--------------------------------------------------------------------------------|
|--------------------------------------------------------------------------------|
|--------------------------------------------------------------------------------|
|--------------------------------------------------------------------------------|
|--------------------------------------------------------------------------------|

|-----------------------------------------------------------------------------------|
|-----------------------------------------------------------------------------------|
|--12-12-12/14-14-14-14p12-12-12-12/14-14-14-14~-14p12-12-12-12h14-14-14--14~-------|
|-----------------------------------------------------------------------------------|
|-----------------------------------------------------------------------------------|
|-----------------------------------------------------------------------------------|

|---------------------------------------------|
|----------------------------------13---------|
|-------10~-------10~-------10-12b----12~-----|
|-10h12-----10h12-----10h12-------------------|
|---------------------------------------------|
|---------------------------------------------|

|-------------------------------------------------------------------------------------|
|-------------------------------------------------------------------------------------|
|-------------------------------------------------------------------------------------|
|-5-5-5-5-7-7-7-7-10-10-10-10-7-7-7-7-5-5-5-5-7-7-7-7-12-12-12-12-10-10-10-10---------| x2
|-------------------------------------------------------------------------------------|
|-------------------------------------------------------------------------------------|

|-/13-12------------------------/13-12--------15-13-12-12h13p12-10~------|
|--------13----13----13----------------12--------------------------------|
|-----------12----10----9-10-7~----------13~-----------------------------|
|------------------------------------------------------------------------|
|------------------------------------------------------------------------|
|------------------------------------------------------------------------|

|-/13-12-----------------------------------------------------------|
|--------13----13----13--------------------------------------------|
|-----------12----10----9-10-7~-/12~-10-9-10-9---------------------|
|---------------------------------------------10-10/12-12~---------|
|------------------------------------------------------------------|
|------------------------------------------------------------------|

|------------------------------------------------------------------------|
|------------------------------------------------------------------------|
|------------------------------------------------------------------------|
|-/12~-15-14-10-12--------------------10~------------10-10~--------------|               
|-----------------12-10~--8-10-10/12-----8-10-10/12----------------------|
|------------------------------------------------------------------------|
 
|------------------------------------------------------------------------|
|------------------------------------------------------------------------|
|------------------------------------------------------------------------|       keep reapeting.. 
|-/12~-15-14-10-12--------------------10~--------------------------------|
|-----------------12-10~--8-10-10/12-----8-10-10/12-10-8-7-8-5~----------|
|------------------------------------------------------------------------|
            
Submit corrections

comments powered by Disqus
↑ Back to top | War Of Ages Tabs for Instrumental. Lyrics for acoustic guitar and electric guitar. Tablatures and chords are parodies/interpretations of the original songs. You may use it for private study, scholarship, research or language learning purposes only