>
 >
Battle On

Battle On Guitar Tabs

War Of Ages - Battle On chords, tabs, tablatures, lyrics

Guitar lessons | Add/correct | Request | Top 50 tabs Artists:  A B C D E F G H I J K L M N O P Q R S T U V W X Y Z 0-9

Battle On Guitar Tabs – War Of Ages

CD, Sheet music, Poster

Do you like Battle On? Share with your friends now
TabsTabs v2
“Battle On” by: War of Ages
Tuning:D,A,D,G,B,e

Intro: Guitar 1
e:-------------------------------------------------------|
B:-------------------------------------------------------|
G:-------------------------------------------------------|
D:-------------------------------------------------------|
A:-5p0-h5p0-h5p0-h5p0-h8p0-h8p0-h8p0-h8p0-h7p0-h7p0-h7p0-|
D:-------------------------------------------------------|

e:-------------------------------------------------------|
B:-------------------------------------------------------|
G:-------------------------------------------------------|
D:-------------------------------------------------------|
A:-h7p0-h3p0-h3p0-h5p0-h7p0-5p0-h5p0-h5p0-h5p0-h8p0-h8p0-|
D:-------------------------------------------------------|

e:-------------------------------------------------------|
B:-------------------------------------------------------|
G:-------------------------------------------------------|
D:-------------------------------------------------------|
A:-h8p0-h8p0-h7p0-h7p0-h7p0-h7p0-h10p0-h10p0-h10p0-h10p0-|
D:-------------------------------------------------------|

e:------------------------------------------------------|
B:------------------------------------------------------|
G:------------------------------------------------------|
D:------------------------------------------------------|
A:-10p1-h10p1-h10p1-h10p1-h8p1-h8p1-h8p1-h8p1-h7p1-h7p1-|
D:------------------------------------------------------|

e:--------------------------------------------------------|
B:--------------------------------------------------------|
G:--------------------------------------------------------|
D:--------------------------------------------------------|
A:-h7p1-h7p1-h8p1-h7p1-h5p1-h7p1—h5p3-h5p3-h7p3-h7p3-h8p3-|
D:--------------------------------------------------------|


e:-------------------------------------------------------|
B:-------------------------------------------------------|
G:-------------------------------------------------------|
D:-------------------------------------------------------|
A:-h8p3-h7p3-h7p3-h10p3-h8p3-h7p3-h12p3-h10p3-h8p3-h7----|
D:-------------------------------------------------------|
Intro: Guitar 2

e:------------------------------------------------------|
B:------------------------------------------------------|
G:------------------------------------------------------|
D:-8—10-------------------------------------------------|
A:-8—10-------------------------------------------------|
D:-8—10----000000000-000-000--000000000-000-000---------|
p.m.       ......... ... ...  ......... ... ...

e:-------------------------------------------------------|
B:-------------------------------------------------------|
G:-------------------------------------------------------|
D:-888888888-888-888----101010101010101010-101010-101010-|
A:-888888888-888-888----101010101010101010-101010-101010-|
D:-888888888-888-888----101010101010101010-101010-101010-|
   ......... ... ...     . . . . . . . . .  . . .  . . .


e:------------------------------------------------------|
B:------------------------------------------------------|
G:------------------------------------------------------|
D:-------------------------------00-00------------------|
A:-------------------------------00-00------------------|
D:-00000000000000000000000000000-00-00----00000000000-0-|
   ............................. .. ..

Part I: Guitar 1

e:-------------------------------------------------------|
B:-------------------------------------------------------|
G:-------------------------------------------------------|
D:-------------------------------------------------------|
A:--------------------------8~\--------------------------|
D:-00000000000-0-000000000-------00000000000-0-000000000-|
   ........... . .........       ........... . .........
e:-------------------------------------------------------|
B:-------------------------------------------------------|
G:-------------------------------------------------------|
D:10-10-----8-8-----------repeat-------------------------|
A:------8-8-----10-10------------------------------------|
D:-------------------------------------------------------|

Part I: Guitar 2

e:-------------------------------------------------------|
B:-------------------------------------------------------|
G:-------------------------------------------------------|
D:-------------------------------------------------------|
A:--------------------------5~\--------------------------|
D:-00000000000-0-000000000-------00000000000-0-000000000-|
   ........... . .........       ........... . .........
e:-------------------------------------------------------|
B:-------------------------------------------------------|
G:-------------------------------------------------------|
D:10-10-----8-8-----------repeat-------------------------|
A:------8-8-----10-10------------------------------------|
D:-------------------------------------------------------|

Part II: Guitar 1

e:----------------------------------------------------------|
B:----------------------------------------------------------|
G:----------------------------------------------------------|
D:---------------------------------------------------8p7----|
A:-7h8-----------5h7-----------7h8-----------10-8-7----10-8-|
D:-----0-0-0-0-0-----0-0-0-0-0-----0-0-0-0-0----------------|
       . . . . .     . . . . .     . . . . .

Part II: Guitar 2

e:---------------------------------------------------------|
B:---------------------------------------------------------|
G:---------------------------------------------------------|
D:---------------------------------------------------------|
A:-10h12----------8h10-----------10h12---------------------|
D:------0-0-0-0-0------0-0-0-0-0------0-0-0-0-0------------|
        . . . . .      . . . . .      . . . . .

e:----------------------|
B:----------------------|
G:----------------------|
D:----------12-10-------|
A:-13-12-10------13-12--|
D:----------------------|

Part III: Guitar 1

e:---------------------------------------------------------|
B:---------------------------------------------------------|
G:---------------------------------------------------------|
D:-0------7----6-----4---2---4------7-----6-----4---2------|
A:-0-------------------------------------------------------|
D:-0-0000—-000---000---0---0----000---000---000---0--------|
     ....  ...   ...   .   .    ...   ...   ...   .


e:----------------------------------------------------------|
B:----------------------------------------------------------|
G:----------------------------------------------------------|
D:------7------6-----4----2----------7-7-7-7--------4-4-4-4-|
A:---------------------------7-7-7-7---------2-2-2-2--------|
D:-4444---444----444---4-----7-7-7-7---------2-2-2-2--------|
   ....   ...    ...   .

Part III: Guitar 2

e:---------------------------------------------------------|
B:---------------------------------------------------------|
G:-------6----4-----2----1----2-----6-----4-----2----1-----|
D:-0-------------------------------------------------------|
A:-0-------------------------------------------------------|
D:-0-0000—-000---000---0---0----000---000---000---0--------|
     ....  ...   ...   .   .    ...   ...   ...   .


e:---------------------------------------------------------|
B:---------------------------------------------------------|
G:-----6----4-----2----1------------6-6-6-6--------2-2-2-2-|
D:---------------------------------------------------------|
A:--------------------------7-7-7-7--------2-2-2-2---------|
D:-4444—-444---444---4---4--7-7-7-7--------2-2-2-2---------|
   ....  ...   ...   .   .


Part IV: Guitar 2

e:--------------------------------------------------------|
B:--------------------------------------------------------|
G:--------------------------------------------------------|
D:---------00-0000-1-1-1-1-1----------00-0000-1-1-1-3-3---|
A:---------00-0000-1-1-1-1-1----------00-0000-1-1-1-3-3---|
D:-0000000—00-0000-1-1-1-1-1--0000000—00-0000-1-1-1-3-3---|
   ....... .. ....            ....... .. ....

Part IV: Guitar 1

e:-------------------------------------------------------|
B:-------------------------------------------------------|
G:-------------------------------------------------------|
D:-0-0----------------------0-0--—-10p8p7-------8-7------|
A:-0-0----12\7-7\3-h10p8—8\-0-0-----------8-10-----8-----|
D:-0-0-0--------------------0-0-0------------------------|
       .                        .
e:---------------------------------------------------------|
B:-----------------------------10\5-5---6------------------|
G:------------------------------------5----7---------------|
D:-000-0-0-00-------0-000-00-------------------------------|
A:-000-0-0-00-------0-000-00-------------------------------|
D:-000-0-0-00-00000-0-000-00-------------------------------|
              .....
e:-------------------------------------------------------|
B:-----------------------------13-11-------10-11-10------|
G:-----------------------------------12-10----------10---|
D:-000-0-0-00-------0-000-00-----------------------------|
A:-000-0-0-00-------0-000-00-----------------------------|
D:-000-0-0-00-00000-0-000-00-----------------------------|
              .....

Part V (Clean):

e:-------------------------------------------------------|
B:-------------------------------------------------------|
G:-------------------------------------------------------|
D:------7-----6\----2---2/6------7-----6-----2-----2-----|
A:-------------------------------------------------------|
D:-0000---000---000---0-----0000---000----0-----0--------|
   Let it all ring out>>>


e:-------------------------------------------------------|
B:-------------------------------------------------------|
G:------------------------------------------------1------|
D:----4-----7-----6---4---4h6------4----7----2-----------|
A:-------------------------------------------------------|
D:-44---44---444---—44---4-------77—-77---22---22--------|

Part VI (Distorted) Guitar 1:

e:------------------------------------------------------|
B:------------------------------------------------------|
G:------------------------------------------------------|
D:-------7777-6666-2222-2/6-------7777-6666-------------|
A:-------------------------------------------77-7~\-----|
D:-0000---------------------0000------------------------|


e:------------------------------------------------------|
B:------------------------------------------------------|
G:------------------------------------------------------|
D:-------7777-6666-2222-2/6-------7~\-------4~\---------|
A:------------------------------------------------------|
D:-4444---------------------7777------2222--------------|

Part VI (Distorted): Guitar II

e:------------------------------------------------------|
B:------------------------------------------------------|
G:------6666—4444-1-1-1/4--------6666-4444--------------|
D:------------------------------------------66-6~\------|
A:------------------------------------------------------|
D:-0000--------------------0000-------------------------|

e:------------------------------------------------------|
B:------------------------------------------------------|
G:------6666—4444-1-1-1/4--------6666-4444—1-1-1\-------|
D:------------------------------------------------------|
A:------------------------------------------------------|
D:-4444--------------------4444-------------------------|


E:------------------------------------------------------|
B:------------------------------------------------------|
G:-------6\---------2-----------------------------------|
D:------------------------------------------------------|
A:------------------------------------------------------|
D:-7777-------2222--------------------------------------|

Then Guitar 2 plays Guitar 1’s part and Guitar 1 plays the lead:

e:------------------------------7-----------------------|
B:-10-9-7-10-9-7-10-9-7-10-9-7----10-9-7-10-9-7-10-9-7--|
G:------------------------------------------------------|
D:------------------------------------------------------|
A:------------------------------------------------------|
D:------------------------------------------------------|

e:----------------7-------------------------------------|
B:-10-9-7-10-9-7----10-9~--------I couldn’t figure out--|
G:-------------------------------the rest---------------|
D:------------------------------------------------------|
A:------------------------------------------------------|
D:------------------------------------------------------|
Part VII Outro (same as Part III): Guitar 1

e:---------------------------------------------------------|
B:---------------------------------------------------------|
G:---------------------------------------------------------|
D:-0------7----6-----4---2---4------7-----6-----4---2------|
A:-0-------------------------------------------------------|
D:-0-0000—-000---000---0---0----000---000---000---0--------|
     ....  ...   ...   .   .    ...   ...   ...   .
e:----------------------------------------------------------|
B:----------------------------------------------------------|
G:----------------------------------------------------------|
D:------7------6-----4----2----------7-7-7-7--------4-4-4-4-|
A:---------------------------7-7-7-7---------2-2-2-2--------|
D:-4444---444----444---4-----7-7-7-7---------2-2-2-2--------|
   ....   ...    ...   .

Part VII Outro (same as Part III): Guitar 2

e:---------------------------------------------------------|
B:---------------------------------------------------------|
G:-------6----4-----2----1----2-----6-----4-----2----1-----|
D:-0-------------------------------------------------------|
A:-0-------------------------------------------------------|
D:-0-0000—-000---000---0---0----000---000---000---0--------|
     ....  ...   ...   .   .    ...   ...   ...   .

e:---------------------------------------------------------|
B:---------------------------------------------------------|
G:-----6----4-----2----1------------6-6-6-6--------2-2-2-2-|
D:---------------------------------------------------------|
A:--------------------------7-7-7-7--------2-2-2-2---------|
D:-4444—-444---444---4---4--7-7-7-7--------2-2-2-2---------|
   ....  ...   ...   .   .

| /  slide up
| \  slide down
| h  hammer-on
| p  pull-off
| ~  vibrato
| +  harmonic
| .  palm mute


All right there it is.  I made corrections to the intro part for guitar I on  9/20/07.  
luck and God bless. This an awesome song.





Comments


Popular War Of Ages tabs & chords
One Day Bass Tabs
Battle On 2 Tabs
Instrumental Tabs
Instrumental 2 Tabs
Instrumental 3 Tabs
Meb Tabs
Salvation 1 Tabs
Salvation Intro Tabs
Salvation Intro 1 Tabs
Strength Within Intro 1 Tabs


Song lyrics



↑ Back to top | Tablatures and chords are parodies/interpretations of the original songs. You may use it for private study, scholarship, research or language learning purposes only
© 2014 AZChords.com Contact us | Privacy policy | DMCA | Add/correct tabs | Request tabs | Top 50 tabs