>
 >
Faces

Faces Guitar Tabs

Warning - Faces chords, tabs, tablatures, lyrics

Guitar lessons | Add/correct | Request | Top 50 tabs Artists:  A B C D E F G H I J K L M N O P Q R S T U V W X Y Z 0-9

Faces Guitar Tabs – Warning

CD, Sheet music, Poster

Do you like Faces? Share with your friends now
Bass TabsTabs
================================================================================
                                 W A R N I N G

                                       -

                                   F A C E S
================================================================================


                             WATCHING FROM A DISTANCE
                            (c) Cyclone Records (2008)


                               Tune Down 2 Full Steps
                                   C F A# D# G C

                                  Tempo = 62 BPM
                               Time Signature = 4/4



                          -----------------------------

                                 PADDY MCMULLAN

                                   Version 1.1
                                 10th July 2009
                      (Corrections Outlined at Bottom of Tab)
                             -----------------------

                             Tablature Symbols Used:


 p            -  Pull-Off
 h            -  Hammer-On
 (/)          -  Legato Slide (Blank space indicates length of slide)
 \            -  Slide Down to/Down From (Blank space indicates length of slide)
 /            -  Slide Up To/Up From (Blank space indicates length of slide)
 ( )          -  Ghost Note/Tied Note/Implied Note
 |---|        -  Let Notes Ring
 |____[1,2,3] -  Alternative Endings



================================================================================
Rest for 1 bar
================================================================================

================================================================================
Section 1: Guitars 1 & 2 with Heavy Distortion (Play 4 times)
================================================================================


||--------------------|---------------------|--------------------|
||--------------------|---------------------|--------------------|
||--------------------|---------------------|--------------------|
||--------------------|---------------------|--------------------|
||--5--------4--------|--2----4--------4----|--5--------4--------|
||--------------------|-------2--------2----|--------------------|

   |----|
|--------------------|--------------------|---------------------|
|--------------------|--------------------|---------------------|
|--------------------|--------------------|---------------------|
|--------------------|--------------------|---------------------|
|--0-----------------|--5--------4--------|--2----4--------4----|
|-------2------------|--------------------|-------2--------2----|


|--------------------|------------------------| |
|--------------------|------------------------| |
|--------------------|------------------------|*|
|--------------------|---------7--4-------- / |*|
|--5--------4--------|--2 / 5-----------------| |
|--------------------|------------------------| |



In the last bar, only guitar 2 plays the upwards slide at the end, and only on
the last repeat.



During this section the tempo gradually increases to 68 BPM



================================================================================
Section 2.1: Guitar 1 (Play once)
================================================================================


||--------------------|--------------------|--------------------|
||--------------------|--------------------|--------------------|
||--------------------|--------------------|--------------------|
||--4------------4----|--2------------2----|--------------------|
||--------------------|--------------------|--2------------2----|
||--------------------|--------------------|--------------------|


|--------------------|-------------------||
|--------------------|-------------------||
|--------------------|-------------------||
|--------------------|--5----------------||
|--0------------0----|-------------------||
|--------------------|-------------------||



================================================================================
Section 2.2: Guitar 2 (Play once)
================================================================================


||-------------------------|-------------------|
||-------------------------|-------------------|
||-------------------------|-------------------|
||--11------------11 h 12--|--9----------------|
||-------------------------|-------------------|
||-------------------------|-------------------|


|-------------------------|-------------------------|-------------------||
|-------------------------|-------------------------|-------------------||
|-------------------------|-------------------------|-------------------||
|--12------------12 h 14--|--11------------11 h 12--|--9----------------||
|-------------------------|-------------------------|-------------------||
|-------------------------|-------------------------|-------------------||



During this section the tempo gradually increases to 74 BPM



================================================================================
Guitars 1 & 2 play Section 1 four times; replacing last bar with the following:
================================================================================


[ Tempo = 62 BPM ]


|--------------------------||
|--------------------------||
|--------------------------||
|---------7--4-------- p 0-||
|--2 / 5-------------------||
|--------------------------||



================================================================================
Section 3: Guitars 1 & 2 (Play twice) [ Tempo = 70 BPM ]
================================================================================


||----------------------|--------------------|-----------------------|
||----------------------|--------------------|-----------------------|
||----------------------|--------------------|-----------------------|
||---------11-----------|--------------------|--6--------------------|
||--7------9------------|--9--------7--------|--7--------12----11----|
||--9------9------------|--7--------5--------|--0--------10----9-----|

                                    |-----|
|--------------------|-------------------------||
|--------------------|-------------------------||
|--------------------|-------------------------||
|--------------------|-----------------7-------||
|--9--------7--------|--5-----(2/4)-5-----4----||
|--7--------5--------|--3----------------------||



On the second repeat, replace the first bar with the following (note the change
in the chord durations):


||---------------------|
||---------------------|
||---------------------|
||-----------11--------|
||--7--------9---------|
||--9--------9---------|



================================================================================
Section 4: Guitars 1 & 2 (Play twice) [ Tempo = 62 BPM ]
================================================================================


                                        |-----|
||-----------------------|-------------------------|
||-----------------------|-------------------------|
||-----------------------|-------------------------|
||-----------------------|-----------------7-------|
||--9--------9 \ 7--9----|--7-----(2/4)-5-----4----|
||--7--------7 \ 5--7----|--5----------------------|

                                     |-----|
|------------------------|----------------------| |
|------------------------|----------------------| |
|------------------------|-----------2----------|*|
|------------------------|--------------4-------|*|
|--9--------9----12--- \ |--4--------------4----| |
|--7--------7----10--- \ |--2-------------------| |



================================================================================
Guitars 1 & 2 play Section 1 four times (ignoring the last "slide up" note)
================================================================================


================================================================================
Section 5.1 (Variation of Section 2.1): Guitar 1 (Play once)
================================================================================


||--------------------|---------------------|--------------------|
||--------------------|---------------------|--------------------|
||--------------------|---------------------|--------------------|
||--4------------4----|--2--------0---------|--------------------|
||--------------------|----------------4----|--2------------2----|
||--------------------|---------------------|--------------------|


|--------------------|--------------------|--------------------|
|--------------------|--------------------|--------------------|
|--------------------|--------------------|--------------------|
|--------------------|--------------------|--------------------|
|--0------------0----|--5------------5----|--4------------4----|
|--------------------|--------------------|--------------------|


|--------------------|--------------------|-------------------||
|--------------------|--------------------|-------------------||
|--------------------|--------------------|-------------------||
|--------------------|--------------------|--5----------------||
|--2------------2----|--0------------0----|-------------------||
|--------------------|--------------------|-------------------||



================================================================================
Section 5.2 (Variation of Section 2.2): Guitar 2 (Play once)
================================================================================


||-------------------------|-------------------|
||-------------------------|-------------------|
||-------------------------|-------------------|
||--11------------11 h 12--|--9----------------|
||-------------------------|-------------------|
||-------------------------|-------------------|


|-------------------------|----------------------|-------------------------|
|-------------------------|----------------------|-------------------------|
|-------------------------|----------------------|--11------------11 h 13--|
|--12------------12 h 14--|--11------------11----|-------------------------|
|-------------------------|----------------------|-------------------------|
|-------------------------|----------------------|-------------------------|


|--------------------|----------------------|----------------------|
|--------------------|----------------------|----------------------|
|--9------------9----|--7------------7 h 9--|--6------------6 h 7--|
|--------------------|----------------------|----------------------|
|--------------------|----------------------|----------------------|
|--------------------|----------------------|----------------------|


|-------------------||
|-------------------||
|--4----------------||
|-------------------||
|-------------------||
|-------------------||



================================================================================
Guitars 1 & 2 play Section 1 four times, using the last bar replacement
================================================================================

================================================================================
Guitars 1 & 2 play Section 3 twice [ Tempo = 72 BPM ]
================================================================================

================================================================================
Guitars 1 & 2 play Section 4 four times [ Tempo = 62 BPM ]
================================================================================

================================================================================
Outro: Guitars 1 & 2 (Play twice)
================================================================================


||----------------------|---------------------|----------------------|
||----------------------|---------------------|----------------------|
||----------------------|---------------------|----------------------|
||--7----7--9-----------|---------------------|--7----7--9-----------|
||--5----0--7------6----|--4--------4----2----|--5----0--7------7----|
||-----------------4----|--2--------2----0----|-----------------5----|


|-----------------------|----------------------|---------------------|
|-----------------------|----------------------|---------------------|
|-----------------------|----------------------|---------------------|
|--------6--------------|--7----7--9-----------|---------------------|
|--4--------5-----------|--5----0--7------6----|--4--------4----2----|
|-----5-----------------|-----------------4----|--2--------2----0----|

                      |____________________[1]
|---------------------|--------------------| |
|---------------------|--------------------| |
|---------------------|--------------------|*|
|---------------------|--------------------|*|
|--5--------2----0----|--5--------2--------| |
|---------------------|--3--------0--------| |

|____________________________________________________________[2]
|---------------------|-------------------|-------------------||
|---------------------|-------------------|-------------------||
|---------------------|-------------------|-------------------||
|-----------6---------|-------------------|-------------------||
|--5--------7----7----|--9----------------|--(9)--------------||
|--3-------------5----|--9----------------|--(9)--------------||



During the last 3 bars Guitar 1 takes the high notes and Guitar 2 takes the low



================================================================================
End
================================================================================


Tab summary:        Section 1 x 4
                    Section 2 x 1
                    Section 1 x 4
                    Section 3 x 2
                    Section 4 x 2
                    Section 1 x 4
                    Section 5 x 1
                    Section 1 x 4
                    Section 3 x 2
                    Section 4 x 4
                    Outro x 2

                    END

-----------------------
Corrections (10/07/09):
-----------------------

* Corrected Section 3 (added supplementary bar)





Comments


Popular Warning tabs & chords
Bridges Bass Tabs
Echoes Bass Tabs
Faces Bass Tabs
Watching From A Distance Bass Tabs
Bridges Tabs
Echoes Tabs
Watching From A Distance Tabs


Song lyrics



↑ Back to top | Tablatures and chords are parodies/interpretations of the original songs. You may use it for private study, scholarship, research or language learning purposes only
© 2014 AZChords.com Contact us | Privacy policy | DMCA | Add/correct tabs | Request tabs | Top 50 tabs