>
 >
Faces

Faces Bass Tabs

Warning - Faces chords, tabs, tablatures, lyrics

Guitar lessons | Add/correct | Request | Top 50 tabs Artists:  A B C D E F G H I J K L M N O P Q R S T U V W X Y Z 0-9

Faces Bass Tabs – Warning

CD, Sheet music, Poster

Do you like Faces? Share with your friends now
Bass TabsTabs
================================================================================
                                 W A R N I N G

                                       -

                                   F A C E S
================================================================================


                             WATCHING FROM A DISTANCE
                            (c) Cyclone Records (2008)


                               Tune Down 2 Full Steps
                                     C F A# D#

                                  Tempo = 62 BPM
                               Time Signature = 4/4



                          -----------------------------

                                 PADDY MCMULLAN

                                   Version 1.1
                                 10th July 2009
                     (Corrections Outlined at Bottom of Tab)
                             -----------------------

                             Tablature Symbols Used:


 p            -  Pull-Off
 h            -  Hammer-On
 (/)          -  Legato Slide (Blank space indicates length of slide)
 \            -  Slide Down to/Down From (Blank space indicates length of slide)
 /            -  Slide Up To/Up From (Blank space indicates length of slide)
 ( )          -  Ghost Note/Tied Note/Implied Note
 |---|        -  Let Notes Ring
 |____[1,2,3] -  Alternative Endings



================================================================================
Intro: Play once
================================================================================


||--14----11--------------||
||--------------11--------||
||------------------------||
||------------------------||



================================================================================
Section 1: Play 4 times
================================================================================


||--------------------|---------------------|--------------------|
||--------------------|---------------------|--------------------|
||--5--------4--------|--2------------------|--5--------4--------|
||--------------------|-------2--------2----|--------------------|

   |----|
|--------------------|--------------------|---------------------|
|--------------------|--------------------|---------------------|
|--0-----------------|--5--------4--------|--2------------------|
|-------2------------|--------------------|-------2--------2----|


|--------------------|------------------------| |
|--------------------|---------7--4-----------|*|
|--5--------4--------|--2 / 5-----------------|*|
|--------------------|------------------------| |



During this section the tempo gradually increases to 68 BPM



================================================================================
Section 2: Play once
================================================================================


||--------------------|--------------------|--------------------|
||--4------------4----|--2------------2----|--------------------|
||--------------------|--------------------|--2------------2----|
||--------------------|--------------------|--------------------|


|--------------------|-------------------||
|--------------------|--5----------------||
|--0------------0----|-------------------||
|--------------------|-------------------||



During this section the tempo gradually increases to 74 BPM



================================================================================
Play Section 1 four times [ Tempo = 62 BPM ]
================================================================================

================================================================================
Section 3: Play twice [ Tempo = 70 BPM ]
================================================================================


||----------------------|--------------------|----------------------|
||----------------------|--------------------|----------------------|
||----------------------|--------------------|--7-------------------|
||--0------2--------2 / | -7--------5--------|--0--------10----9----|

                                    |-----|
|--------------------|-------------------------| |
|--------------------|-----------------7-------|*|
|--------------------|--------(2/4)-5-----4----|*|
|--7--------5--------|--3----------------------| |



On the second repeat, replace the first bar with the following (note the change
in the chord durations):


||----------------------|
||----------------------|
||----------------------|
||--0--------2------2 / |



================================================================================
Section 4: Play twice [ Tempo = 62 BPM ]
================================================================================


                                       |-----|
||----------------------|-------------------------|
||----------------------|-----------------7-------|
||----------------------|--------(2/4)-5-----4----|
||--7--------7--5--7----|--5----------------------|

                                     |-----|
|------------------------|-----------2----------| |
|------------------------|--------------4-------|*|
|------------------------|-----------------4----|*|
|--7--------7----10--- \ | -2-------------------| |



================================================================================
Play Section 1 four times
================================================================================

================================================================================
Section 5: Play once
================================================================================


||--------------------|--------------------|--------------------|
||--4------------4----|--2------------2----|--------------------|
||--------------------|--------------------|--2------------2----|
||--------------------|--------------------|--------------------|


|--------------------|--------------------|--------------------|
|--------------------|--------------------|--------------------|
|--0------------0----|--5------------5----|--4------------4----|
|--------------------|--------------------|--------------------|


|--------------------|--------------------|-------------------||
|--------------------|--------------------|--5----------------||
|--2------------2----|--0------------0----|-------------------||
|--------------------|--------------------|-------------------||



================================================================================
Play Section 1 four times
================================================================================

================================================================================
Play Section 3 twice [ Tempo = 72 BPM ]
================================================================================

================================================================================
Play Section 4 four times [ Tempo = 62 BPM ]
================================================================================

================================================================================
Outro: Play twice
================================================================================


||----------------------|---------------------|----------------------|
||----------------------|---------------------|----------------------|
||--5----0--7-----------|---------------------|--5----0--7-----------|
||-----------------4----|--2--------2----0----|-----------------5----|


|-----------------------|----------------------|---------------------|
|--------6--------------|----------------------|---------------------|
|--4--------5-----------|--5----0--7-----------|---------------------|
|-----5-----------------|-----------------4----|--2--------2----0----|

                      |____________________[1]
|---------------------|--------------------| |
|---------------------|--------------------|*|
|--5--------2----0----|--------------------|*|
|---------------------|--3--------0--------| |

|_____________________________________________________________________[2]
|-----------------------|--------------------------|--------------------|
|-----------14----------|--------------16----------|--------------------|
|-----------------12----|--------16----------16----|--------------------|
|--3--------------------|--14----------------------|--14----------------|


|---------------------||
|---------------------||
|---------------------||
|--(14)----------\  --||



================================================================================
End
================================================================================


Tab summary:        Intro x 1
                    Section 1 x 4
                    Section 2 x 1
                    Section 1 x 4
                    Section 3 x 2
                    Section 4 x 2
                    Section 1 x 4
                    Section 5 x 1
                    Section 1 x 4
                    Section 3 x 2
                    Section 4 x 4
                    Outro x 2

                    END

----------------------
Corrections [10/07/09]
----------------------

* Corrected Section 3 (added supplementary bar)





Comments


Popular Warning tabs & chords
Bridges Bass Tabs
Echoes Bass Tabs
Watching From A Distance Bass Tabs
Bridges Tabs
Echoes Tabs
Faces Tabs
Watching From A Distance Tabs


Song lyrics



↑ Back to top | Tablatures and chords are parodies/interpretations of the original songs. You may use it for private study, scholarship, research or language learning purposes only
© 2014 AZChords.com Contact us | Privacy policy | DMCA | Add/correct tabs | Request tabs | Top 50 tabs