>
 >
Onslaught

Onslaught Guitar Tabs

Warbringer - Onslaught chords, tabs, tablatures, lyrics

Guitar lessons | Add/correct | Request | Top 50 tabs Artists:  A B C D E F G H I J K L M N O P Q R S T U V W X Y Z 0-9

Onslaught Guitar Tabs – Warbringer

CD, Sheet music, Poster

Do you like Onslaught? Share with your friends now
Tabs
Hey guys! I had a tab for the intro, but now i got a better ear so i've been working on 
this song! It's my favourite song ever made: it's called
Onslaught by Warbringer of the Born of The Ruins Demo! Don't forget to check out my tab 
for Nightslasher by Warbringer aswell!

INTRO
E |----------------------------------------------------------|
B |----------------------------------------------------------|
G |----------------------------------------------------------|
D |-------------------------10-9-10--7-9-7--7-5--------------|
A |--/7~--9-7-9~--10-9-10~----------------------(/7~)--------|
E |----------------------------------------------------------|
                                                           X4
              (HARMONY: STARTS THIRD TIME)
E |----------------------------------------------------------|
B |----------------------------------------------------------|
G |-----------------------9-7-9--7-5-7--5-4------------------|
D |--/5~--7-5-7~--9-7-9~--------------------(/5~)------------|
A |----------------------------------------------------------|
E |----------------------------------------------------------|
                                                           X2

E |----------------------------------------------------------|
B |----------------------------------------------------------|
G |----------------------------------------------------------|
D |----------------------------------------------------------|
A |-9-------10------9-------10--9---10-----------------------|
E |-7-7-7-7-7-7-7-7-7-7-7-7-7-7-7-7-7------------------------|
                                                             |
E |----------------------------------------------------------|
B |----------------------------------------------------------|
G |----------------------------------------------------------|
D |----------------------------------------------------------|
A |----------------------------------------------------------|
E |-3-3-5-3-7-3-5-3-5-5-7-5-9-5-7-5--------------------------|
                                                           X2

E |----------------------------------------------------------|
B |----------------------------------------------------------|
G |----------------------------------------------------------|
D |-9-------10------9-------10--9---10-----------------------|
A |---7-7-7---7-7-7---7-7-7---7---7--------------------------|
E |----------------------------------------------------------|
                                                             |
E |----------------------------------------------------------|
B |----------------------------------------------------------|
G |----------------------------------------------------------|
D |----------------------------------------------------------|
A |-3-3-5-3-7-3-5-3-5-5-7-5-9-5-7-5--------------------------|
E |----------------------------------------------------------|
                                                           X2

VERSE
E |----------------------------------------------------------|
B |----------------------------------------------------------|
G |----------------------------------------------------------|
D |-10-------9-------7---------------10-------9-------7------|
A |----7-7-7---7-7-7---7-7-7------------7-7-7---7-7-7--------|
E |--------------------------8---10--------------------------|
                                                             |
E |----------------------------------------------------------|
B |----------------------------------------------------------|
G |-10-9-7---------------------------------------------------|
D |---------10-9-7-------------------------------------------|
A |----------------10-9-7------------------------------------|
E |----------------------------------------------------------|
                                                             |
E |----------------------------------------------------------|
B |----------------------------------------------------------|
G |----------------------------------------------------------|
D |-10-------9-------7---------------10-------9-------7------|
A |----7-7-7---7-7-7---7-7-7------------7-7-7---7-7-7--------|
E |--------------------------8---10--------------------------|
                                                             |
E |----------------------------------------------------------|
B |----------------------------------------------------------|
G |----------------------------------------------------------|
D |----------------------------------------------------------|
A |-3-3-3-3-5-5-5-5-7-7-7-7-9-9-9-9--------------------------|
E |----------------------------------------------------------|
                                                             |
E |----------------------------------------------------------|
B |----------------------------------------------------------|
G |----------------------------------------------------------|
D |-13----------12----------10------------------13-----------|
A |----10-10-10----10-10-10----10-10-10------------10-10-10--|
E |-------------------------------------11---13--------------|
                                                             |
E |----------------------------------------------------------|
B |----------------------------------------------------------|
G |--------------------13-12-10------------------------------|
D |-12----------10--------------13-12-10---------------------|
A |----10-10-10--------------------------13-12-10------------|
E |----------------------------------------------------------|
                                                             |
E |----------------------------------------------------------|
B |----------------------------------------------------------|
G |----------------------------------------------------------|
D |-15----------14----------12------------------15-----------|
A |----12-12-12----12-12-12----12-12-12------------12-12-12--|
E |-------------------------------------13--15---------------|
                                                             |
E |----------------------------------------------------------|
B |--------------------------------17-15-13------------------|
G |--------------15-14-12-------------------15-13-15b--------|
D |-14--------------------15-14-12---------------------------|
A |----12-12-12----------------------------------------------|
E |----------------------------------------------------------|

CHORUS
E |----------------------------------------------------------|
B |----------------------------------------------------------|
G |----------------------------------------------------------|
D |-9-------10--9---9-------10--9----------------------------|
A |-7-7-7-7-7-7-7-7-7-7-7-7-7-7-7-7--------------------------|
E |----------------------------------------------------------|
                                                             |
E |----------------------------------------------------------|
B |----------------------------------------------------------|
G |----------------------------------------------------------|
D |-5-------7---5---7-------9---7----------------------------|
A |-3-3-3-3-3-3-3-3-5-5-5-5-5-5-5-5--------------------------|
E |----------------------------------------------------------|
                                                             |
B |----------------------------------------------------------|
G |----------------------------------------------------------|
D |-9-------10--9---9-------10--9----------------------------|
A |-7-7-7-7-7-7-7-7-7-7-7-7-7-7-7-7--------------------------|
E |----------------------------------------------------------|
                                                             |
E |----------------------------------------------------------|
B |----------------------------------------------------------|
G |----------------------------------------------------------|
D |-5-------7---5--------------------------------------------|
A |-3-3-3-3-3-3-3-3-7-7-7-7-7-7-7-7--------------------------|
E |-----------------5-5-5-5-5-5-5-5--------------------------|

VERSE
CHORUS

BRIDGE
E |----------------------------------------------------------|
B |----------------------------------------------------------|
G |----------------------------------------------------------|
D |----------------------------------------------------------|
A |-4-4-------------------------7-7--------------------------|
E |-2-2-4-2-2-2-4-2-2-2-4-2-2-2-5-5-7-5-5-5-7-5-5-5-7-5-5-5/9|
                                                             |
E |----------------------------------------------------------|
B |----------------------------------------------------------|
G |----------------------------------------------------------|
D |----------------------------------------------------------|
A |-4-4-------------------------7-7---------9----------------|
E |-2-2-4-2-2-2-4-2-2-2-4-2-2-2-5-5-7-5-5-5-7----------------|

SOLO BACKING

E |----------------------------------------------------------|
B |----------------------------------------------------------|
G |----------------------------------------------------------|
D |----------------------------------------------------------|
A |-4-----4-----4---4-----4-----4---4-----4-----4------------|
E |-2-2-2-2-2-2-2-2-2-2-2-2-2-2-2-2-2-2-2-2-2-2-2-2----------|
                                                             |
E |----------------------------------------------------------|
B |----------------------------------------------------------|
G |----------------------------------------------------------|
D |----------------------------------------------------------|
A |-0-0-2-2-3-3-2-2------------------------------------------|
E |----------------------------------------------------------|
                                                             |
E |----------------------------------------------------------|
B |----------------------------------------------------------|
G |----------------------------------------------------------|
D |----------------------------------------------------------|
A |-4-----4-----4---4-----4-----4---4-----4-----4------------|
E |-2-2-2-2-2-2-2-2-2-2-2-2-2-2-2-2-2-2-2-2-2-2-2-2----------|
                                                             |
E |----------------------------------------------------------|
B |----------------------------------------------------------|
G |----------------------------------------------------------|
D |----------------------------------------------------------|
A |-3-3-2-2-0-0----------------------------------------------|
E |-------------2-2------------------------------------------|
              (TWO TIMES BEFORE, TWO TIMES DURING SOLO)    X4

E |----------------------------------------------------------|
B |----------------------------------------------------------|
G |----------------------------------------------------------|
D |7-9-----------------7-9-----------------7-9---------------|
A |5-7-7-------10------5-7-7-------10------5-7---------------|
E |----5-5-5-5-8-8-8-8-----5-5-5-5-8-8-8-8-------------------|
                                                             |
E |----------------------------------------------------------|
B |----------------------------------------------------------|
G |----------------------------------------------------------|
D |-10----10----10\7-7-----7-----7---------------------------|
A |-8-8-8-8-8-8-8-\5-5-5-5-5-5-5-5---------------------------|
E |----------------------------------------------------------|
           (FOUR TIMES DURING, TWO TIMES AFTER SOLO)       X6

E |----------------------------------------------------------|
B |----------------------------------------------------------|
G |----------------------------------------------------------|
D |-9-------10--9---9-------10--9----------------------------|
A |-7-7-7-7-7-7-7-7-7-7-7-7-7-7-7-7--------------------------|
E |----------------------------------------------------------|
                                                             |
E |----------------------------------------------------------|
B |----------------------------------------------------------|
G |----------------------------------------------------------|
D |----------------------------------------------------------|
A |-3-3-5-3-7-3-5-3-5-5-7-5-9-5-7-5--------------------------|
E |----------------------------------------------------------|

CHORUS
BRIDGE
E |---|
B |---|
G |---|
D |---|
A |-4-|
E |-2-|





Comments


Popular Warbringer tabs & chords
At The Crack Of Doom Intro Tabs
At The Crack Of Doom Intro 1 Tabs
At The Crack Of Doom Intro 2 Tabs
Combat Shock Tabs
Nightslasher Tabs
Onslaught Intro Tabs
Shoot To Kill Tabs
Total War Tabs


Song lyrics



↑ Back to top | Tablatures and chords are parodies/interpretations of the original songs. You may use it for private study, scholarship, research or language learning purposes only
© 2014 AZChords.com Contact us | Privacy policy | DMCA | Add/correct tabs | Request tabs | Top 50 tabs