>
 >
Lifes Been Good2

Lifes Been Good2 Guitar Tabs

Walsh Joe - Lifes Been Good2 chords, tabs, tablatures, lyrics

Guitar lessons | Add/correct | Request | Top 50 tabs Artists:  A B C D E F G H I J K L M N O P Q R S T U V W X Y Z 0-9

Lifes Been Good2 Guitar Tabs – Walsh Joe

CD, Sheet music, Poster

Do you like Lifes Been Good2? Share with your friends now
Tabs
Life’s Been Good by Joe Walsh
This is the first song that I have done from scratch. 
 I can say that It took a long time, but it was a good experience. 
 The solo for this song I also Tabbed and it is called 
“Life’s Been Good Solo” by Joe Walsh.  
This song is awesome, and the tab is at least 85% correct.  Enjoy.





e|--------------------|--------------------|--------------------|
B|--------------------|--------------------|--------------------|
G|----------------2---|----------2-2-2-----|----------------2---|
D|--------------------|-----2------2-2-----|--------------------|
A|-2-2(b)-2-0-2/4-----|--4----4----0-0-----|-2-2(b)-2-0-2/4-----|
E|--------------------|--------------------|--------------------|



e|--------------------|--------------------|--------------------|
B|--------------------|--------------------|--------------------|
G|---------xx-7-------|----------------2---|-------2-2-2--------|
D|---2---0-xx-7-xx-7--|--------------------|---2-----2-2--------|
A|-4---4---xx-5-xx-7--|-2-2(b)-2-0-2/4-----|-4---4---0-0--------|
E|--------------xx-5--|--------------------|--------------------|



e|--------------------|--------------------|--------------------|
B|--------------------|--------------------|--------------------|
G|----------------2---|---------xx-7-------|----------------2---|
D|--------------------|---2---0-xx-7-xx-7--|--------------------|
A|-2-2(b)-2-0-2/4-----|-4---4---xx-5-xx-7--|-2-2(b)-2-0-2/4-----|
E|--------------------|--------------xx-5--|--------------------|



e|--------------------|-5-5-5-3-3-3-1-1----|-5-5-5-3-3-3-1-1----|
B|--------------------|-6-6-6-5-5-5-1-1----|-6-6-6-5-5-5-1-1----|
G|-------2-2-2--------|-5-5-5-5-5-5-2-2----|-5-5-5-5-5-5-2-2----|
D|---2-----2-2--------|--------------------|--------------------|
A|-4---4---0-0--------|--------------------|--------------------|
E|--------------------|--------------------|--------------------|



e|-5-5-5-3-3-3-1-1----|--------------------|--------------------|
B|-6-6-6-5-5-5-1-1----|-0-0-1(h)-----------|--------------------|
G|-5-5-5-5-5-5-2-2----|-0-0-2(h)-----------|--------------------|
D|--------------------|-0-0-2(h)-----------|-5---0-2-3----------|
A|--------------------|-0-0-0--------------|---3----------------|
E|--------------------|--------------------|--------------------|



e|--------------------|--------------------|--------------------|
B|--------------------|--------------------|--------------------|
G|--------------------|--------------------|--------------------|
D|-3-3-3-3-2-2-2-2----|-0-0-0-0------------|-3-3-3-3-2-2-2-2----|
A|--------------------|---------3-3-3-3----|--------------------|
E|--------------------|--------------------|--------------------|






e|--------------------|--------------------|--------------------|
B|--------------------|--------------------|--------------------|
G|--------------------|--------------------|--------------------|
D|-0-0-0-0------------|-3-3-3-3-2-2-2-2----|-0-0-0-0------------|
A|---------3-3-3-3----|--------------------|---------3-3-3-3----|
E|--------------------|--------------------|--------------------|



e|--------------------|--------------------|--------------------|
B|--------------------|--------------------|--------------------|
G|--------------------|--------------------|--------------------|
D|-3-3-3-3-2-2-2-2----|-0-0-0-0------------|--------------------|
A|--------------------|---------3-3-3-3-3--|-3-2-0--------------|
E|--------------------|--------------------|-------3------------|



e|-3-3-----3-----3----|-----3-3-3-3-3-3-3---|-3-3-3-3-3-3-3-3-3-|
B|-3-3-----3-----3----|-----3-3-3-3-3-3-3---|-3-3-3-3-3-3-3-3-3-|
G|-0-0-----0-----0----|-----0-0-0-0-0-0-0---|-0-0-0-0-0-0-0-0-0-|
D|-0-------0-----0----|-----0-0-0-0-0-0-0---|-0-0-0-0-0-0-0-0-0-|
A|-0-------0-3-3-3----|-----0-3-3-3-3-3-3---|-0-0-0-3-3-3-3-3-3-|
E|-3—--1-1-1----------|-3-3-3---------------|-3-3-3-------------|



e|-3-3-3-----3-3-----3|-3------3-----3-3----|--------------------|
B|-3-3-3-----3-3-----3|-3------3-----3-3----|------1-------3-0-1h|
G|-0-0-0-----0-0-----0|-0------0-----0-0----|----0-------0---0-2h|
D|-0-0-0-----0-------0|--------0-----0------|--2-------0-----0-2h|
A|-0-0-0-----0-------0|----3-3-3-----0------|3-------2-------0-0-|
E|-3-3-3-3-3-3---1-1-1|----------3-3-3------|--------------------|



e|--------------------|--------------------|--------------------|
B|--------------------|--------------------|--------------------|
G|--------------------|--------------------|--------------------|
D|-5---0-2-3-3-3-3----|-2-2-2-2-0-0-0-0----|---------3-3-3-3----|
A|---3----------------|--------------------|-3-3-3-3------------|
E|--------------------|--------------------|--------------------|



e|--------------------|--------------------|--------------------|
B|--------------------|--------------------|--------------------|
G|--------------------|--------------------|--------------------|
D|-2-2-2-2-0-0-0-0----|---------3-3-3-3----|-2-2-2-2-0-0-0-0----|
A|--------------------|-3-3-3-3------------|--------------------|
E|--------------------|--------------------|--------------------|






e|--------------------|--------------------|--------------------|
B|--------------------|--------------------|--------------------|
G|--------------------|--------------------|--------------------|
D|---------3-3-3-3----|-2-2-2-2-0-0-0-0----|---------3-3-3-3----|
A|-3-3-3-3------------|--------------------|-3-3-3-3------------|
E|--------------------|--------------------|--------------------|



e|--------------------|--------------------|--------------------|
B|--------------------|--------------------|--------------------|
G|--------------------|--------------------|--------------------|
D|-2-2-2-2-0-0-0-0----|---------3-3-3-3----|-2-2-2-2-0-0-0-0----|
A|--------------------|-3-3-3-3------------|--------------------|
E|--------------------|--------------------|--------------------|



e|--------------------|--------------------|--------------------|
B|--------------------|--------------------|--------------------|
G|--------------------|--------------------|--------------------|
D|---------3-3-3-3----|-2-2-2-2-0-0-0-0----|---------3-3-3-3----|
A|-3-3-3-3------------|--------------------|-3-3-3-3------------|
E|--------------------|--------------------|--------------------|



e|--------------------|--------------------|--------------------|
B|--------------------|--------------------|--------------------|
G|--------------------|--------------------|--------------------|
D|-2-2-2-2-0-0-0-0----|--------------------|--------------------|
A|--------------------|-3-3-3-3------------|-3-2-0--------------|
E|--------------------|--------------------|-------3------------|



e|-3-3-----3-----3----|-----3-3-3-3-3-3-3---|-3-3-3-3-3-3-3-3-3-|
B|-3-3-----3-----3----|-----3-3-3-3-3-3-3---|-3-3-3-3-3-3-3-3-3-|
G|-0-0-----0-----0----|-----0-0-0-0-0-0-0---|-0-0-0-0-0-0-0-0-0-|
D|-0-------0-----0----|-----0-0-0-0-0-0-0---|-0-0-0-0-0-0-0-0-0-|
A|-0-------0-3-3-3----|-----0-3-3-3-3-3-3---|-0-0-0-3-3-3-3-3-3-|
E|-3—--1-1-1----------|-3-3-3---------------|-3-3-3-------------|



e|-3-3-3-----3-3-----3|-3------3-----3-3----|--------------------|
B|-3-3-3-----3-3-----3|-3------3-----3-3----|------1-------3-0-1h|
G|-0-0-0-----0-0-----0|-0------0-----0-0----|----0-------0---0-2h|
D|-0-0-0-----0-------0|--------0-----0------|--2-------0-----0-2h|
A|-0-0-0-----0-------0|----3-3-3-----0------|3-------2-------0-0-|
E|-3-3-3-3-3-3---1-1-1|----------3-3-3------|--------------------|

|									|
|									|
|				Solo goes here			|
|			I have it in a different file 	|
|		


e|--------------------|--------------------|--------------------|
B|--------------------|--------------------|--------------------|
G|----------------2---|----------2-2-2-----|----------------2---|
D|--------------------|-----2------2-2-----|--------------------|
A|-2-2(b)-2-0-2/4-----|--4----4----0-0-----|-2-2(b)-2-0-2/4-----|
E|--------------------|--------------------|--------------------|



e|--------------------|--------------------|--------------------|
B|--------------------|--------------------|--------------------|
G|---------xx-7-------|----------------2---|-------2-2-2--------|
D|---2---0-xx-7-xx-7--|--------------------|---2-----2-2--------|
A|-4---4---xx-5-xx-7--|-2-2(b)-2-0-2/4-----|-4---4---0-0--------|
E|--------------xx-5--|--------------------|--------------------|



e|--------------------|--------------------|--------------------|
B|--------------------|--------------------|--------------------|
G|----------------2---|---------xx-7-------|----------------2---|
D|--------------------|---2---0-xx-7-xx-7--|--------------------|
A|-2-2(b)-2-0-2/4-----|-4---4---xx-5-xx-7--|-2-2(b)-2-0-2/4-----|
E|--------------------|--------------xx-5--|--------------------|



e|--------------------|-5-5-5-3-3-3-1-1----|-5-5-5-3-3-3-1-1----|
B|--------------------|-6-6-6-5-5-5-1-1----|-6-6-6-5-5-5-1-1----|
G|-------2-2-2--------|-5-5-5-5-5-5-2-2----|-5-5-5-5-5-5-2-2----|
D|---2-----2-2--------|--------------------|--------------------|
A|-4---4---0-0--------|--------------------|--------------------|
E|--------------------|--------------------|--------------------|



e|-5-5-5-3-3-3-1-1----|--------------------|--------------------|
B|-6-6-6-5-5-5-1-1----|-0-0-1(h)-----------|--------------------|
G|-5-5-5-5-5-5-2-2----|-0-0-2(h)-----------|--------------------|
D|--------------------|-0-0-2(h)-----------|-5---0-2-3----------|
A|--------------------|-0-0-0--------------|---3----------------|
E|--------------------|--------------------|--------------------|



e|--------------------|--------------------|--------------------|
B|--------------------|--------------------|--------------------|
G|--------------------|--------------------|--------------------|
D|-3-3-3-3-2-2-2-2----|-0-0-0-0------------|-3-3-3-3-2-2-2-2----|
A|--------------------|---------3-3-3-3----|--------------------|
E|--------------------|--------------------|--------------------|






e|--------------------|--------------------|--------------------|
B|--------------------|--------------------|--------------------|
G|--------------------|--------------------|--------------------|
D|-0-0-0-0------------|-3-3-3-3-2-2-2-2----|-0-0-0-0------------|
A|---------3-3-3-3----|--------------------|---------3-3-3-3----|
E|--------------------|--------------------|--------------------|



e|--------------------|--------------------|--------------------|
B|--------------------|--------------------|--------------------|
G|--------------------|--------------------|--------------------|
D|-3-3-3-3-2-2-2-2----|-0-0-0-0------------|--------------------|
A|--------------------|---------3-3-3-3-3--|-3-2-0--------------|
E|--------------------|--------------------|-------3------------|



e|-3-3-----3-----3----|-----3-3-3-3-3-3-3---|-3-3-3-3-3-3-3-3-3-|
B|-3-3-----3-----3----|-----3-3-3-3-3-3-3---|-3-3-3-3-3-3-3-3-3-|
G|-0-0-----0-----0----|-----0-0-0-0-0-0-0---|-0-0-0-0-0-0-0-0-0-|
D|-0-------0-----0----|-----0-0-0-0-0-0-0---|-0-0-0-0-0-0-0-0-0-|
A|-0-------0-3-3-3----|-----0-3-3-3-3-3-3---|-0-0-0-3-3-3-3-3-3-|
E|-3—--1-1-1----------|-3-3-3---------------|-3-3-3-------------|



e|-3-3-3-----3-3-----3|-3------3-----3-3----|--------------------|
B|-3-3-3-----3-3-----3|-3------3-----3-3----|------1-------3-0-1h|
G|-0-0-0-----0-0-----0|-0------0-----0-0----|----0-------0---0-2h|
D|-0-0-0-----0-------0|--------0-----0------|--2-------0-----0-2h|
A|-0-0-0-----0-------0|----3-3-3-----0------|3-------2-------0-0-|
E|-3-3-3-3-3-3---1-1-1|----------3-3-3------|--------------------|


e|--------------------|--------------------|--------------------|
B|--------------------|--------------------|--------------------|
G|----------------2---|----------2-2-2-----|----------------2---|
D|--------------------|-----2------2-2-----|--------------------|
A|-2-2(b)-2-0-2/4-----|--4----4----0-0-----|-2-2(b)-2-0-2/4-----|
E|--------------------|--------------------|--------------------|



e|--------------------|--------------------|--------------------|
B|--------------------|--------------------|--------------------|
G|---------xx-7-------|----------------2---|-------2-2-2--------|
D|---2---0-xx-7-xx-7--|--------------------|---2-----2-2--------|
A|-4---4---xx-5-xx-7--|-2-2(b)-2-0-2/4-----|-4---4---0-0--------|
E|--------------xx-5--|--------------------|--------------------|




e|--------------------|--------------------|--------------------|
B|--------------------|--------------------|--------------------|
G|----------------2---|---------xx-7-------|----------------2---|
D|--------------------|---2---0-xx-7-xx-7--|--------------------|
A|-2-2(b)-2-0-2/4-----|-4---4---xx-5-xx-7--|-2-2(b)-2-0-2/4-----|
E|--------------------|--------------xx-5--|--------------------|





Comments


Popular Walsh Joe tabs & chords
Help Me Thru The Night Chords
Rocky Mountain Way Chords
A Life Of Illusion Tabs
All Night Laundrymat Blues Tabs
All Night Long Tabs
Funk 4 Tabs
Funk 49 Tabs
Help Me Thru The Night Tabs
Lifes Been Good Tabs
Lifes Been Good 1 Tabs


Song lyrics



↑ Back to top | Tablatures and chords are parodies/interpretations of the original songs. You may use it for private study, scholarship, research or language learning purposes only
© 2014 AZChords.com Contact us | Privacy policy | DMCA | Add/correct tabs | Request tabs | Top 50 tabs