» » »

Waking Ashland, Hands On Deck Tabs (ver.1)

Artists:  A B C D E F G H I J K L M N O P Q R S T U V W X Y Z # 

Hands On Deck Tabs (ver.1)

Waking Ashland Tabs
 Rating:
4/5 (7 votes)
Hands On Deck lessons Tabs too difficult? Try these video lessons and learn fast
                Waking Ashland
Composure

Listen to the CD for timing

Intro + Chorus
     B    F#maj    E
|---------2--------0--|
|----4----2--------0--|
|----4----3--------1--|
|----4----2--------2--|
|----2----4--------2--|
|---------2--------0--|

Not sure about the name of the F, but the chord is right

Verse
     G#m   (A#m)   Bm    E
|------------------------0--|
|----4-----(6)------7----0--|
|----4-----(6)------7----1--|
|----2-----(4)------5----2--|
|----2-----(4)------5----2--|
|----4-----(6)------7----0--|

A#m is optional.  I think that it’s actually the cello paying it, but still sounds good.

Bridge
        G#m     F#sus   E
|----------2-------0--|
|----4-----2-------0--|
|----4-----3-------1--|
|----2-----2-------2--|
|----2-----4-------2--|
|----4-----2-------0--|

That’s pretty much it.  The timing is relatively easy so u should pick it up pretty easily.

The Hunter

Happy hunting
            
Submit corrections

comments powered by Disqus
↑ Back to top | Waking Ashland Tabs for Hands On Deck. Lyrics for acoustic guitar and electric guitar. Tablatures and chords are parodies/interpretations of the original songs. You may use it for private study, scholarship, research or language learning purposes only