» » »

Wake Up Your Seatmate, Tiger Tabs (ver.1)

Artists:  A B C D E F G H I J K L M N O P Q R S T U V W X Y Z # 

Tiger Tabs (ver.1)

Wake Up Your Seatmate Tabs
 Rating:
4.2/5 (5 votes)
Tiger lessons Tabs too difficult? Try these video lessons and learn fast
1
                (Lili)
Album:Wake Up Your Seatmate
              
For your questions or suggestions,just post in friendster comment,PM or mail me.

Gtr.Legends:

h - hammer-on
. - palm muting
~ - let it ring

Gtr.Tuning:Standard(Normal)

Intro prt.1:Snare Drums(No Gtr.)

Intro prt.2:
Gtr.1
e|-----------------------------------------------------|
B|-----------------------------------------------------|
G|-222222222222---2-2-2-2--4-4-4-4--2-2-2-2--4-4-4-4---|
D|-222222222222---2-2-2-2--4-4-4-4--2-2-2-2--4-4-4-4---|
A|-000000000000---0-0-0-0--2-2-2-2--0-0-0-0--2-2-2-2---|
E|-----------------------------------------------------|
                  . . . .  . . . .  . . . .  . . . .

Gtr.2
e|-----------------------------------------------------------------|
B|---4h5----4h5---4h5---4h5----------------------------------------|
G|-4------4-----4-----4-------2-2-2-2--4-4-4-4--2-2-2-2--4-4-4-4---|
D|----------------------------2-2-2-2--4-4-4-4--2-2-2-2--4-4-4-4---|
A|----------------------------0-0-0-0--2-2-2-2--0-0-0-0--2-2-2-2---|
E|-----------------------------------------------------------------|
                              . . . .  . . . .  . . . .  . . . .

Verse:
Gtr.1
e|----------------------------------------------------------------------------------------------|
B|----------------------------------------------------------------------------------------------|
G|-2222-4444-6666-9999---2222-4444-66666666---2222-4444-6666-9999---2222-4444-6666-9999--9999---|
D|-2222-4444-6666-9999---2222-4444-66666666---2222-4444-6666-9999---2222-4444-6666-9999--9999---|
A|-0000-2222-4444-7777---0000-2222-44444444---0000-2222-4444-7777---0000-2222-4444-7777--7777---|
E|----------------------------------------------------------------------------------------------|

Gtr.2
e|--------------------------------------------------------|
B|--------------------------------------------------------|
G|-4444444444444444444444444444444444444444444444444444---|
D|-xxxxxxxxxxxxxxxxxxxxxxxxxxxxxxxxxxxxxxxxxxxxxxxxxxxx---|
A|-2222222222222222222222222222222222222222222222222222---|
E|--------------------------------------------------------|

e|--------------------------------------|
B|--------------------------------------|
G|-2-2-2-2--4-4-4-4--2-2-2-2--4-4-4-4---|
D|-2-2-2-2--4-4-4-4--2-2-2-2--4-4-4-4---|
A|-0-0-0-0--2-2-2-2--0-0-0-0--2-2-2-2---|
E|--------------------------------------|
   . . . .  . . . .  . . . .  . . . .

e|----------------------------------------------|
B|----------------------------------------------|
G|-6666-9999--6666-9999--6666-------6666--------| 2x
D|-6666-9999--6666-9999--6666-9999--6666-9999---|
A|-4444-7777--4444-7777--4444-9999--4444-9999---|
E|----------------------------7777-------7777---|


Last Chord:
e|------|
B|------|
G|-2~---|
D|-2~---|
A|-0~---|
E|------|

End...


Tiger Lili Lyrics:

Verse 1:
When the time I married ya, from the sanctuary
ya, I'll be waiting here outside
When you're peaceful above the charm, and when you're rebel urban
tribes feels sorry, my favourite, slippers and the sovereign
(reminds me of the summer I was)
Let's rock the every hour, It wasn't took vibrations
hey you, energy will to middle turn direction

Chorus:
But I don't know what we can be, It doesn't matter much to me
I want to spend our daybreak thing, tend to spend our day with me
I love to hear the mixture, a futuristic song
A sweetened sign like a venture, A sweetened sign like a venture
Altogether

Verse 2:
When I'm with you at the light at tremble to the way 
Take me to a better palce of I can smell the ocean

You are unpredicatble as a matter change of mine
When you fly away I'll go ahead left behind


(Repeat Chorus twice)

Outro: 
Let's turn the radio and send me what I need to
I find myself believe me I'm much in love with you
            
Submit corrections

comments powered by Disqus
↑ Back to top | Wake Up Your Seatmate Tabs for Tiger. Lyrics for acoustic guitar and electric guitar. 1 Tablatures and chords are parodies/interpretations of the original songs. You may use it for private study, scholarship, research or language learning purposes only