» » »

Wake Up Your Seatmate, Tiger Chords (ver.1)

Artists:  A B C D E F G H I J K L M N O P Q R S T U V W X Y Z # 

Tiger Chords (ver.1)

Wake Up Your Seatmate Tabs
Rating:
0/5 (0 votes)
Tiger lessons Tabs too difficult? Try these video lessons and learn fast
                (Lili)
Wake Up Your Seatmate

The band
Mia Tengco - Vocals/Rhythm
Celine Pineda - Lead/Back Vocals
Patty Peralta - Bass/Back Vocals
Atchoo Ilagan - Drums

Tuning: Standard EADGBe

* - means harmonics

Chords used:
A8 -  x0244x
A9 -  x02200
B9 -  x24440
C#m - x46654
E -   x79997 in verses; 022100 in chorus
B -   x24442

Intro: Drums solo then beat will switch to fast

Mia:
   A8       A9    B9    A9    B9
e|--------|-------0-----------0---------------|
B|-4------|-0-----4-----0-----4---------------|
G|-4------|-2-----4-----2-----4---------------|
D|-2(x32)-|-2(x4)-4(x4)-2(x4)-4(x4)--|
A|-0------|-0-----2-----0-----2---------------|
E|--------|-----------------------------------|

Celine:
e|------|---------7-6-------------7-6-7*-|
B|------|-----7-------7-------7----------|
G|------|-8-9-------------8-9------------|
D|-idle-|--------------------------------|
A|------|--------------------------------|
E|------|--------------------------------|


Verse 1:
A9         B9             C#m          E
  When the time I married ya, from the sanctuary
A9         B9                 C#m  E
  ya, I'll be waiting here outside
A9            B9                 C#m                    E
  When you're peaceful above the charm, and when you're rebel urban
A9                       B9          C#m             E
  tribes feels sorry, my favourite, slippers and the sovereign
   A9
(reminds me of the summer I was)
A9               B9        C#m         E
  Let's rock the every hour, It wasn't took vibrations
A9    B9       C#m               E
  hey you, energy will to middle turn direction


Interlude 1:

Mia:
   A9    B9    A9    B9
e|-----------------------------------|
B|-0-----------0---------------------|
G|-2-----4-----2-----4---------------|
D|-2(x4)-4(x4)-2(x4)-4(x4)--|
A|-0-----2-----0-----2---------------|
E|-----------------------------------|

Celine:
e|-9-11-12---14--12--11~-|
B|-----------------------|
G|-----------------------|
D|-----------------------|
A|-----------------------|
E|-----------------------|


Chorus:
    C#m               E             C#m            E
But I don't know what we can be, It doesn't matter much to me
  C#m               B               C#m               B
I want to spend our daybreak thing, tend to spend our day with me
  C#m              E          C#m        E
I love to hear the mixture, a futuristic song
  C#m                   B          C#m                   B
A sweetened sign like a venture, A sweetened sign like a venture
    A8-B9(x2)
Altogether

Patty: while doing chorus x2
G|--------------------1-2-4--6-----6--4--2---|
D|-----------1--2-2-2----------6-6---------2-|
A|-4-4-2-4-4---------------------------------|
E|-------------------------------------------|
then
G|-----------------------------|
D|-----2---------------4-1-2---|
A|-4-4---4--4--2-2-2-2-------2-|
E|-----------------------------|

(repeat 2nd Intro part)


Verse 2:
A9                B9              C#m            E
When I'm with you at the light at tremble to the water
A9           B9              C#m             A8
Take me to a better palce of I can smell the ocean


Patty: bass solo
G|----9--------|
D|-11-------11-|
A|-------11----|
E|-------------|

A9           B9            C#m              E
You are unpredicatble as a matter change of mine
A9            B9                C#m        E
When you fly away I'll go ahead left behind


(Repeat Chorus twice)


Outro: 1 2 1 2 3 4!!!
A9                       B9
Let's turn the radio and send me what I need to
  C#m                        E
I find myself believe me I'm much in love with you

Mia:
  A8
e|---
B|-4-
G|-4-
D|-2-
A|-0-
E|---

Celine:
e|-7-----7-----7-----7----|
B|----9-----9-----9-----9-|
G|------------------------|
D|------------------------|
A|------------------------|
E|------------------------|

(Repeat)
            

comments powered by Disqus
↑ Back to top | Wake Up Your Seatmate Chords for Tiger. Lyrics for acoustic guitar and electric guitar. Tablatures and chords are parodies/interpretations of the original songs. You may use it for private study, scholarship, research or language learning purposes only