>
 >
Un Vote De Moins

Un Vote De Moins Guitar Tabs

Vulgaires Machins - Un Vote De Moins chords, tabs, tablatures, lyrics

Guitar lessons | Add/correct | Request | Top 50 tabs Artists:  A B C D E F G H I J K L M N O P Q R S T U V W X Y Z 0-9

Un Vote De Moins Guitar Tabs – Vulgaires Machins

CD, Sheet music, Poster

Do you like Un Vote De Moins? Share with your friends now
Tabs
Transcrit par : Alex Viau

Les deux guitares jouent la même chose sauf lorsque le contraire est indiqué.
La chanson est jouée avec distorsion au complet.

 p.m. : (palm mute léger)
 P.M. : (palm mute fort)
 2b3  : de 2, faire un bend d'un demi-ton jusqu'à 3
 ~~   : let ring

Intro (x2)  
e|-----------------------------------------------------------------------------------------|
B|-----------------------------------------------------------------------------------------|
G|-----------------------------------------------------------------------------------------|
D|-10------6-6-5--5------3------5------6-5-3-8-9-10----------------------------------------|
A|-10-(x6)-6-6-5--5-(x3)-3-(x6)-5-(x5)-6-5-3-8-9-10----------------------------------------|
E|--8------4-4-3--3------1------3------4-3-1-6-7-8-----------------------------------------|
                               |------|
                                p.m.

Ensuite...

e|-----------------------------------------------------------------------------------------|
B|-----------------------------------------------------------------------------------------|
G|-----------------------------------------------------------------------------------------|
D|-10----7----3----5----10------5------3-------5-------------------------------------------|
A|-10-~~-7-~~-3-~~-5-~~-10-(x6)-5-(x6)-3-(x12)-5-(x12)-------------------------------------|
E|--8----5----1----3-----8------3------1-------3-------------------------------------------|
   (Le directeur général...) 

e|-----------------------------------------------------------------------------------------|
B|-----------------------------------------------------------------------------------------|
G|-----------------------------------------------------------------------------------------|
D|-10----7----3----5----10------5------3-------5-------------------------------------------|
A|-10-~~-7-~~-3-~~-5-~~-10-(x6)-5-(x6)-3-(x12)-5-------------------------------------------|
E|--8----5----1----3-----8------3------1-------3-------------------------------------------|
   (Mon devoir de citoyen...)

Refrin
e|-----------------------------------------------------------------------------------------|
B|-----------------------------------------------------------------------------------------|
G|------------------------------------------8-------10-------------------------------------|
D|-10-------12-------10------5------3-------8-(x8)--10-(x8)-10------5------3-------5-------|
A|-10-(x60)-12-(x12)-10-(x6)-5-(x6)-3-(x12)-6-------8-------10-(x6)-5-(x6)-3-(x12)-5-(x12)-|
E|--8-------10--------8------3------1------------------------8------3------1-------3-------|
   (Un vote de moins...)

   Guitare 1
e|-----------------------------------------------------------------------------------------|
B|---------5---3----5----------5b6---------------------------------------------------------|
G|----------5---2b3--5-2~~-4-5-5b6---------------------------------------------------------|
D|-----------------------------------------------------------------------------------------|
A|-----------------------------------------------------------------------------------------|
E|-----------------------------------------------------------------------------------------|
 |                                                                                         |
 | Guitare 2                                                                               |
e|-----------------------------------------------------------------------------------------|
B|-----------------------------------------------------------------------------------------|
G|-----------------------------------------------------------------------------------------|
D|--------10------5------3-------5---------------------------------------------------------|
A|--------10-(x6)-5-(x6)-3-(x12)-5---------------------------------------------------------|
E|---------8------3------1-------3---------------------------------------------------------|

Ensuite...

e|-----------------------------------------------------------------------------------------|
B|-----------------------------------------------------------------------------------------|
G|-----------------------------------------------------------------------------------------|
D|-10-10-------10-10-7-7-------7-7-3-3------5-5------10------5------3-------5--------------|
A|-10-10-(x15)-10-10-7-7-(x15)-7-7-3-3-(x7)-5-5-(x7)-10-(x6)-5-(x6)-3-(x12)-5-(x12)--------|
E|--8--8--------8--8-5-5-------5-5-1-1------3-3-------8------3------1-------3--------------|
      |-------|        |------|      |-----|  |-----|
        P.M.             P.M.          P.M.     P.M.
  (Décalissez la ma planète...)

e|-----------------------------------------------------------------------------------------|
B|-----------------------------------------------------------------------------------------|
G|--------------------------------------------------------------------------8-----10-------|
D|-10-10-------10-10-7-7-------7-7-3-3------5-5------10------5------3-------8(x8)10(x8)10--|
A|-10-10-(x15)-10-10-7-7-(x15)-7-7-3-3-(x7)-5-5-(x7)-10-(x6)-5-(x6)-3-(x12)-6------8---10~~|
E|--8--8--------8--8-5-5-------5-5-1-1------3-3-------8------3------1-------------------8--|
      |-------|        |------|      |-----|  |-----|
        P.M.             P.M.          P.M.     P.M.
  (Y sont ocuppés dans l'salon...)

   Guitare 1
e|-----------------------------------------------------------------------------------------|
B|-----------------------------------------------------------------------------------------|
G|-----5-------------7-------------9-------------------------------------------------------|
D|-----------------------------------------------------------------------------------------|
A|-----------------------------------------------------------------------------------------|
E|-----------------------------------------------------------------------------------------|
 |                                                                                         |
 | Guitare 2                                                                               |
e|-----------------------------------------------------------------------------------------|
B|-----------------------------------------------------------------------------------------|
G|-----------------------------------------------------------------------------------------|
D|----10-----------------------------------------------------------------------------------|
A|----10-~~--------------------------------------------------------------------------------|
E|-----8-----------------------------------------------------------------------------------|

Refrin
e|-----------------------------------------------------------------------------------------|
B|-----------------------------------------------------------------------------------------|
G|-----------------------------------------------------------------------------------------|
D|-10-------12-------10------5------3-------5----------------------------------------------|
A|-10-(x60)-12-(x12)-10-(x6)-5-(x6)-3-(x12)-5-(x12)----------------------------------------|
E|--8-------10--------8------3------1-------3----------------------------------------------|
  (Un vote de moins...)

e|-----------------------------------------------------------------------------------------|
B|-----------------------------------------------------------------------------------------|
G|------------------------------------------8-8------10-10---------------------------------|
D|-10-------12-------10------5------3-------8-8-(x7)-10-10-(x7)-10-------------------------|
A|-10-(x60)-12-(x12)-10-(x6)-5-(x6)-3-(x12)-6-6-------8--8------10-~~----------------------|
E|--8-------10--------8------3------1----------------------------8-------------------------|
                                              |-----|   |-----|
                                                P.M.      P.M.
  (J'veux rien savoir...)

Le prochain riff est joué par Guillaume uniquement
e|-----------------------------------------------------------------------------------------|
B|-----------------------------------------------------------------------------------------|
G|-----5-------8------7--------------------------------------------------------------------|
D|-----5-(x12)-8-(x2)-7-(X4)---------------------------------------------------------------|
A|-----3-------6------5--------------------------------------------------------------------|
E|-----------------------------------------------------------------------------------------|

Et les deux terminent avec la fin de l'intro...
e|-----------------------------------------------------------------------------------------|
B|-----------------------------------------------------------------------------------------|
G|-----------------------------------------------------------------------------------------|
D|-------3------5------6-5-3-8-9-10--------------------------------------------------------|
A|-------3-(x6)-5-(x5)-6-5-3-8-9-10--------------------------------------------------------|
E|-------1------3------4-3-1-6-7-8---------------------------------------------------------|
                |------|
                  p.m.





Comments


Popular Vulgaires Machins tabs & chords
Faut Pas S Leurrer 1 Bass Tabs
La Ballade Des Egoistes Bass Tabs
Papopinage Bass Tabs
Je Chante Pour Les Sourds 1 Chords
Chanson A Vendre Tabs
Dieu Se Pique 2 Tabs
Fausse Route Tabs
TrinitrotuluèNe Tabs
Puit Sans Fond Ukulele
Triple Meutre Et Suicide Rate Ukulele


Song lyrics



↑ Back to top | Tablatures and chords are parodies/interpretations of the original songs. You may use it for private study, scholarship, research or language learning purposes only
© 2014 AZChords.com Contact us | Privacy policy | DMCA | Add/correct tabs | Request tabs | Top 50 tabs