» » »

Volbeat, Evelyn Tabs (ver.2)

Artists:  A B C D E F G H I J K L M N O P Q R S T U V W X Y Z # 

Evelyn Tabs (ver.2)

Volbeat Tabs
 Rating:
4.2/5 (5 votes)
Evelyn lessons Tabs too difficult? Try these video lessons and learn fast
1
                Second Tab. My Tabbing isn't 100% accurate, you'll see that the soloing isn't exactly 
he plays.
C#-tuning. So: 654321 C# F# B E G# c#
I think it can be seen as the most odd song on the 'Above Heaven/Beyond
Hell' album, because of the 'death metal' grunts in it. I said odd but I still like it though.

Chords used in Chorus:
A#(9 11 11 x x x)
D#(x 9 11 11 x x)
G#(7 9 9 x x x)
F#(5 7 7 x x x)
D(1 3 3 x x x)

C#(0 2 2 0 0 0)

Intro:

Main Riff
c#|------------------------------------|------------------------------------||
G#|------------------------------------|------------------------------------||
E |------------------------------------|--------------------------------7-9-|| 3 Times
B |-2-22-22---2-22-22-7-88-88--8-7-5-7-|-2-22-22---2-22-22-7-88-88--8-7-7-9-||
F#|-2-22-22---2-22-22-7-88-88--8-7-5-7-|-2-22-22---2-22-22-7-88-88--8-7-5-7-||
C#|-0-00-00-3-0-00-00-5-66-66--6-5-3-5-|-0-00-00-3-0-00-00-5-66-66--6-5-----||

Verse Riff in Intro
c#|---------------------------------------------------------------------|
G#|---------------------------------------------------------------------|
E |---------------------------------------------------------------------|
B |2-2-2-2-2222-2-2--2-2-2---------------2-2-2-2222-2-2--8-8-8-8-7777-7-|
F#|2-2-2-2-2222-2-2--2-2-2-5h7-0h2p0-5h7-2-2-2-2222-2-2--8-8-8-8-7777-7-|
C#|0-0-0-0-0000-0-0--0-0-0---------------0-0-0-0000-0-0--6-6-6-6-5555-5-|

c#|----------------------------------------------------------|
G#|----------------------------------------------------------|
E |----------------------------------------------------------|
B |2-2-2-2-2222-2-2--2-2-2---------------2-2-2-2222-2-2--8-7-|
F#|2-2-2-2-2222-2-2--2-2-2-5h7-0h2p0-5h7-2-2-2-2222-2-2--8-7-|
C#|0-0-0-0-0000-0-0--0-0-0---------------0-0-0-0000-0-0--6-5-|


Verse 1: Play verse riff like in the intro

Get off my shoulder I told you to stay away your still a big part of me
Dance with delusional angels of sin
Kill false demons your might kill false angels too
That's no what we wanna do
Together as one we do as were told living together and fighting as one

Play the Main Riffx2

Verse 2: Like Verse 1

Rejecting what's "good" with so called evil included
The dominant mind will prove you all blind
Finding the balance to leave you behind
I've learned so far controlling all the dark
Evelyn visions in the sky all on my shoulder all in my mind

Chorus:

In the chorus there is the Ryhthm part (Powerchords above Text) and a
guitar solo which follows the tone of the vocals.

Solo

c#|------------------------------------------------------------------|
G#|------------------------------------------------------------------|
E |----13-13-11-13-14--14-14-13-14-13----11-11-9-11-13-13-11-11-9----|
B |-11-------------------------------13---------------------------11-|
F#|------------------------------------------------------------------|
C#|------------------------------------------------------------------|

c#|----------------------------------------------------------------------|
G#|----------------------------------------------------------------------|
E |13-13-11-13-14--14-14-13-14-13----11-11-9-11-13-13-11-11-9--6~~--2~~--|
B |------------------------------13--------------------------------------|
F#|----------------------------------------------------------------------|
C#|----------------------------------------------------------------------|


 A#                      D#                 G#
      I still hear you sing my sweet love Evelyn
             A#          A#              D#                     G#
In fact I'm so cold, but I made up my mind to see where it will lead
             A#            F#    D
In fact I'm so lonely I...

Connecting part between chorus and Verse 3
c#|-------------------------------------|
G#|-------------------------------------|
E |-------------------------------------|
B |-------------------------------------|
F#|-------------5h7-7-7h8p7-10-8-7h8p7--|
C#|000000000000-------------------------|


Verse 3: like verse 1

Stay away you still a big part of me
Dance with delusional angels of sin
Kill false demons you might kill false angels too
That's not what we wanna do
Evelyn visions in the sky all on my shoulder all in my mind


Chorus


Bridge: Just play the same chord. Try to play it downstroke-upstroke and not down-down. 
guess it just makes it cooler ^^.

C#C#  x4

C#C#
   Don't listen to all this bollocks
C#C#
   There's nothing on either shoulder
C#C#                        C#C#
   Spreading the fire fever into something more that needs ya
C#C#
   Maybe you fall forever and maybe we die together

C#x...(I can't count that can I...?)


Chorus


Guitar Solo

c#|----------------------------------------------------------------------------------------------|
G#|----------------------------------------------------------------------------------------------|
E |------------11-11-9-8h9p8---------9-9-------------------/11-11-9--8h9p8---8-11-/13-/13~~------|
B |/11-11-9-11---------------9-9-11~-----11---11-11-11-9-11--------------------------------7--7-3|
F#|----------------------------------------------------------------------------------------------|
C#|----------------------------------------------------------------------------------------------|

Main Riffx2


Thanks Volbeat. ^^

Questions?
            
Submit corrections

comments powered by Disqus
↑ Back to top | Volbeat Tabs for Evelyn. Lyrics for acoustic guitar and electric guitar. 1 Tablatures and chords are parodies/interpretations of the original songs. You may use it for private study, scholarship, research or language learning purposes only