>
 >
Nasaan

Nasaan Guitar Tabs

Volante Nyoy - Nasaan chords, tabs, tablatures, lyrics

Guitar lessons | Add/correct | Request | Top 50 tabs Artists:  A B C D E F G H I J K L M N O P Q R S T U V W X Y Z 0-9

Nasaan Guitar Tabs – Volante Nyoy

CD, Sheet music, Poster

Do you like Nasaan? Share with your friends now
ChordsTabs
Intro:
---------------------------
---------------------------
---------------------------
---------------------------
----4---7---9---11---------
---------------------------

-----0--------2---------4---------4    -3-
-----0--------2---------4---------5    -4-
-----6--------2---------4---------4    -3-
-----7--------2---------4---------6 2x -5-
-----7--------4---------6---------4    -3-
-----5--------2---------4---------4    -3-


Verse 1

-----------0-----2------------4-------------4-----
-----------0-----2------------4-------------5-----
-----------6-----2------------4-------------4-----
-----------7-----2------------4-------------6-----
-----------7-----4------------6-------------4-----
-----------5-----2------------4-------------4-----
Hating Gabi, Di Mapakali, Di Makatulog, Di Makangiti

-----0----------------2-----------4----------4-----
-----0----------------2-----------4----------5-----
-----6----------------2-----------4----------4-----
-----7----------------2-----------4----------6-----
-----7----------------4-----------6----------4-----
-----5----------------2-----------4----------4-----
Bakit ganon? Hanggang ngayon nag-iisip, nagtatanong?

----------2------------4---------4--
----------2------------4---------5--
----------2------------4---------4--
----------2------------4---------6--
----------4------------6---------4--
----------2------------4---------4--
Sabi mo’y ako hanggang muling magkita

------2-------4--------------4-----
------2-------4--------------5-----
------2-------4--------------4-----
------2-------4--------------6-----
------4-------6--------------4-----
------2-------4--------------4-----
Bakit ngayon nasa piling ng iba...

Chorus:

-----------0------------2----------------4---
-----------0------------2----------------4---
-----------6------------2----------------4---
-----------7------------2----------------4---
-----------7------------4----------------6---
-----------5------------2----------------4---
Nasaan ka na? Nasaan ka na? Di ba’t pangako’y 

------4--------------0-------------2----4---
------5--------------0-------------2----4---
------4--------------6-------------2----4--
------6--------------7-------------2----4--
------4--------------7-------------4----6--
------4--------------5-------------2----4--

Babalik ka, Hanggang ngayon nandito pa, Naghihintay, 

------4----
------5----
------4----
------6----
------4----
------4----
nag-iisa

-----2--------4--------4-----3
-----2--------4--------5-----4
-----2--------4--------4-----3
-----2--------4--------6-----5
-----4--------6--------4-----3
-----2--------4--------4-----3
Nasaan ka na?

Verse 2:

---------0----------2---------4-----------4-----
---------0----------2---------4-----------5-----
---------6----------2---------4-----------4-----
---------7----------2---------4-----------6-----
---------7----------4---------6-----------4-----
---------5----------2---------4-----------4-----
Alaala mo, nasa isip ko, Di mawaglit, di malayo

------0----------------------2--------4
------0----------------------2--------4
------6----------------------2--------4
------7----------------------2--------4
------7----------------------4--------6
------5----------------------2--------4
Mga yakap mong walang kasing diin, Di maniwalang 

---------4----
---------5----
---------4----
---------6----
---------4----
---------4----
di ka na akin

----------2------------4---------4--
----------2------------4---------5--
----------2------------4---------4--
----------2------------4---------6--
----------4------------6---------4--
----------2------------4---------4--
Sabi mo’y ako hanggang muling magkita

------2-------4--------------4-----
------2-------4--------------5-----
------2-------4--------------4-----
------2-------4--------------6-----
------4-------6--------------4-----
------2-------4--------------4-----
Bakit ngayon nasa piling ng iba...

Chorus:

-----------0------------2----------------4---
-----------0------------2----------------4---
-----------6------------2----------------4---
-----------7------------2----------------4---
-----------7------------4----------------6---
-----------5------------2----------------4---
Nasaan ka na? Nasaan ka na? Di ba’t pangako’y 

------4--------------0-------------2----4---
------5--------------0-------------2----4---
------4--------------6-------------2----4--
------6--------------7-------------2----4--
------4--------------7-------------4----6--
------4--------------5-------------2----4--
Babalik ka, Hanggang ngayon nandito pa, Naghihintay, 

------4----
------5----
------4----
------6----
------4----
------4----
nag-iisa

-----2--------4--------4-----3
-----2--------4--------5-----4
-----2--------4--------4-----3
-----2--------4--------6-----5
-----4--------6--------4-----3
-----2--------4--------4-----3
Nasaan ka na?

Bridge:

------2--------4-----------------4---0------2------4
------2--------4-----------------5---0------2------4 
------2--------4-----------------4---6------2------4
------2--------4-----------------6---7------2------4
------4--------6-----------------4---7------4------6
------2--------4-----------------4---5------2------4
......................Di ba pangako mo ika’y babalik 

-4---3-----0-----2---4-------------
-5---4-----0-----2---4-------------
-4---3-----6-----2---4-------------
-6---5-----7-----2---4-------------
-4---3-----7-----4---6-------------
-4---3-----5-----2---4-------------
Nasaaaaaaan ka na? Di ba’t pangako’y 


--4------------------0-------------2---------4---
--5------------------0-------------2---------4---
--4------------------6-------------2---------4---
--6------------------7-------------2---------4---
--4------------------7-------------4---------6---
--4------------------5-------------2---------4---
Babalik ka, Hanggang ngayon nandito pa, Naghihintay

---4----
---5----
---4----
---6----
---4----
---4----
umaasa

---------0------------2------------4---
---------0------------2------------4---
---------6------------2------------4---
---------7------------2------------4---
---------7------------4------------6---
---------5------------2------------4---
Umaasang mahal, ako’y mahal mo pa, Nasaan ka na?

-------4----------------0---------
-------5----------------0---------
-------4----------------6---------
-------6----------------7---------
-------4----------------7---------
-------4----------------5---------
Nasaan ka na? Ako’y iniwan na





Comments


Popular Volante Nyoy tabs & chords
Nasaan Chords
What Do I Do Chords
Kahit Kailan Tabs
Nasaan (Intro) Tabs
Nasaan 2 Tabs
Officially Missin You Tabs
Simple Lang Talaga Tabs
Tanggap Ko Tabs
What Do I Do Tabs
You Should Know By Now Tabs


Song lyrics



↑ Back to top | Tablatures and chords are parodies/interpretations of the original songs. You may use it for private study, scholarship, research or language learning purposes only
© 2014 AZChords.com Contact us | Privacy policy | DMCA | Add/correct tabs | Request tabs | Top 50 tabs