>
 >
Not A Minute Too Soon

Not A Minute Too Soon Guitar Tabs

Vixen - Not A Minute Too Soon chords, tabs, tablatures, lyrics

Guitar lessons | Add/correct | Request | Top 50 tabs Artists:  A B C D E F G H I J K L M N O P Q R S T U V W X Y Z 0-9

Not A Minute Too Soon Guitar Tabs – Vixen

CD, Sheet music, Poster

Do you like Not A Minute Too Soon? Share with your friends now
TabsTabs v2
#------------------------------------------------------------------------------##
#



Vixen - Not a Minute too Soon
The Music Shop BBS (619)423-4970
Standard tuning.

The intro I didn't figure out, it's pretty simple the last note is just
bending on the high e string at the 11th fret to the 12th.  And a bunch
of nonsense before

Intro/Chorus
 Bb
-------------------------|------------------------------------------------|
-------------------------|------------------------------------------------|
-------------------------|------------------------------------------------|
-3--3--3--3--3--3--3--3--|------------------------------------------------|
-1--1--1--1--1--1--1--1--|---------0h2h3p2--------------------------------|
-------------------------|---3--------------3--1------1--1--2---3~--------|

-----------------------------|--------------------------------------------|
-----------------------------|--------------------------------------------|
-----------------------------|--------------------------------------------|
-------------5--5------------|--------------------------------------------|
--0h2h3p2----3--3-----3--3---|-------0h2h3p2------------------------------|
----------------------1--1---|---3------------3--1----1--1--2---3~--------|


----------------------|
----------------------|
----------------------|
--------------5--5----|
---0h2h3p2----3--3----|
----------------------|


Verse

    G                      C                 G           Bb          C
|--------------------|----------------|---------------|-------------------|
|--------------------|----------------|---------------|-------------------|
|--------------------|----5--5---5----|---------------|--3-----------5----|
|--------5--5--5-----|----5--5---5----|---------------|--3-----------5----|
|--------5--5--5-----|----------------|---------------|--1-----------3----|
|---3----------------|----------------|---------------|-------------------|


Pre-Chorus
   Bb                                        Bb           C      D
|--------------------------------------------------------------------------|
|--------------------------------------------------------------------------|
|--3-------------------------------------------------------5------7--------|
|--3-------------------------------------------------------5------7--------|
|--1---1---------------0--1--0-----0-----------------------3------5--------|
|---------3~-----1--3-----------3------------------------------------------|


Play intro/chorus for chorus
Verse II


Bridge
   D             Bb                                 D     Bb       C
---------------------------------------------------------------------------|
---------------------------------------------------------------------------|
---7-------------3-----------5--5--5---------------------------------------|
---7-------------3-----------5--5--5---5--3--------------------------------|
---5-------------1---------------------------5~----------------------------|
---------------------------------------------------------------------------|


Solo   - not entirely correct (of course :)  )  it's a short solo, in
the key of Gminor she's playing G Pentatonic minor for the whole solo
pretty much, I've got most of it, if anyone can hear all the notes in
there, please send me the right way


---------------------------------------------------------------------------|
---11h13p11h13p11~---------------------------------------------------------|
-------------------------------------------------------10b(11)-------------|
---------------------8--10--10--10--8~--------8--------10b(11)-------------|
------------------------10--10--10--------10-----10------------------------|
---------------------------------------------------------------------------|


---------------------------------------------15p13---------------------------|
/11--10---------------------------------------------15p13--15--13~-----------|
---------12--10--------------------------------------------15----------------|
-----------------12------14--14b(15)--14~------------------------------------|
---------------------13-----------------------------------------------15b(16-|
-----------------------------------------------------------------------------|

Here's where I had the trouble

--------------------------------------------------10--13--13b(14)-(14)-----|
-------------------------------------------11-13---------------------------|
-----------------------------------10--12----------------------------------|
--------8------------8------10--8------------------------------------------|
---8h10----10--8h10-----10--10--8------------------------------------------|
---------------------------------------------------------------------------|

--(14)--(14)~~-------------------------------------------------------------|
---------------------------------------------------------------------------|
---------------------------------------------------------------------------|
---------------------------------------------------------------------------|
---------------------------------------------------------------------------|
---------------------------------------------------------------------------|

Play pre-chorus then the chorus

Play this to out

   G            F               C
--------------------------------------------------------------------------|
--------------------------------------------------------------------------|
--------------------------------------------------------------------------|
--------------------------------------------------------------------------|
--------------------------------------------------------------------------|
--------------------------------------------------------------------------|


h = hammeron
p = pulloff
/\ slide up or down
~ vibrato
b bend (**) is the note to bend to
I think that's it

appreciate them fixed if possible.

Thanks y'all!

Judy Letostak


--bpoafqefyupxajxkgtgyxwgarbqgfq--


Status: RO

Vixen - Not a Minute too Soon
The Music Shop BBS (619)423-4970
Standard tuning.

The intro I didn't figure out, it's pretty simple the last note is just
bending on the high e string at the 11th fret to the 12th.  And a bunch
of nonsense before

Intro/Chorus
 Bb
-------------------------|------------------------------------------------|
-------------------------|------------------------------------------------|
-------------------------|------------------------------------------------|
-3--3--3--3--3--3--3--3--|------------------------------------------------|
-1--1--1--1--1--1--1--1--|---------0h2h3p2--------------------------------|
-------------------------|---3--------------3--1------1--1--2---3~--------|

-----------------------------|--------------------------------------------|
-----------------------------|--------------------------------------------|
-----------------------------|--------------------------------------------|
-------------5--5------------|--------------------------------------------|
--0h2h3p2----3--3-----3--3---|-------0h2h3p2------------------------------|
----------------------1--1---|---3------------3--1----1--1--2---3~--------|


----------------------|
----------------------|
----------------------|
--------------5--5----|
---0h2h3p2----3--3----|
----------------------|


Verse

    G                      C                 G           Bb          C
|--------------------|----------------|---------------|-------------------|
|--------------------|----------------|---------------|-------------------|
|--------------------|----5--5---5----|---------------|--3-----------5----|
|--------5--5--5-----|----5--5---5----|---------------|--3-----------5----|
|--------5--5--5-----|----------------|---------------|--1-----------3----|
|---3----------------|----------------|---------------|-------------------|


Pre-Chorus
   Bb                                        Bb           C      D
|--------------------------------------------------------------------------|
|--------------------------------------------------------------------------|
|--3-------------------------------------------------------5------7--------|
|--3-------------------------------------------------------5------7--------|
|--1---1---------------0--1--0-----0-----------------------3------5--------|
|---------3~-----1--3-----------3------------------------------------------|


Play intro/chorus for chorus
Verse II


Bridge
   D             Bb                                 D     Bb       C
---------------------------------------------------------------------------|
---------------------------------------------------------------------------|
---7-------------3-----------5--5--5---------------------------------------|
---7-------------3-----------5--5--5---5--3--------------------------------|
---5-------------1---------------------------5~----------------------------|
---------------------------------------------------------------------------|


Solo   - not entirely correct (of course :)  )  it's a short solo, in
the key of Gminor she's playing G Pentatonic minor for the whole solo
pretty much, I've got most of it, if anyone can hear all the notes in
there, please send me the right way


---------------------------------------------------------------------------|
---11h13p11h13p11~---------------------------------------------------------|
-------------------------------------------------------10b(11)-------------|
---------------------8--10--10--10--8~--------8--------10b(11)-------------|
------------------------10--10--10--------10-----10------------------------|
---------------------------------------------------------------------------|


---------------------------------------------15p13---------------------------|
11--10---------------------------------------------15p13--15--13~------------|
---------12--10--------------------------------------------15----------------|
-----------------12------14--14b(15)--14~------------------------------------|
---------------------13-----------------------------------------------15b(16-|
-----------------------------------------------------------------------------|

Here's where I had the trouble

--------------------------------------------------10--13--13b(14)-(14)-----|
-------------------------------------------11-13---------------------------|
-----------------------------------10--12----------------------------------|
--------8------------8------10--8------------------------------------------|
---8h10----10--8h10-----10--10--8------------------------------------------|
---------------------------------------------------------------------------|

--(14)--(14)~~-------------------------------------------------------------|
---------------------------------------------------------------------------|
---------------------------------------------------------------------------|
---------------------------------------------------------------------------|
---------------------------------------------------------------------------|
---------------------------------------------------------------------------|

Play pre-chorus then the chorus

Play this to out

   G            F               C
--------------------------------------------------------------------------|
--------------------------------------------------------------------------|
--------------------------------------------------------------------------|
--------------------------------------------------------------------------|
--------------------------------------------------------------------------|
--------------------------------------------------------------------------|


h = hammeron
p = pulloff
\ slide up or down
~ vibrato
b bend (**) is the note to bend to
I think that's it

appreciate them fixed if possible.

Thanks y'all!

Judy Letostak





Comments


Popular Vixen tabs & chords
Edge Of A Broken Heart Bass Tabs
Edge Of A Broken Heart Chords
Fallen Hero 1 Tabs
How Much Love Tabs
How Much Love 1 Tabs
I Want You To Rock Me Tabs
Not A Minute Too Soon 1 Tabs
Rev It Up Tabs
Rev It Up 1 Tabs
Streets In Paradise Tabs


Song lyrics



↑ Back to top | Tablatures and chords are parodies/interpretations of the original songs. You may use it for private study, scholarship, research or language learning purposes only
© 2014 AZChords.com Contact us | Privacy policy | DMCA | Add/correct tabs | Request tabs | Top 50 tabs