» » »

Virginia Coalition, Green And Grey Tabs (ver.1)

Artists:  A B C D E F G H I J K L M N O P Q R S T U V W X Y Z # 

Green And Grey Tabs (ver.1)

Virginia Coalition Tabs
Rating:
0/5 (0 votes)
Green And Grey lessons Tabs too difficult? Try these video lessons and learn fast
                
 
Verse:
    Bm    A          F#m
e|---2----------------2----2-----------------------------|
B|---3----2-----------2----2h3---------------------------|
G|---4----2-----------2----2-----------------------------|
D|---4----2-----------4----2h4---------------------------|
A|---2----------------4----2-----------------------------|
E|--------------------2----2-----------------------------|
     Fade as if to a whisper...

Chorus:
     D    A   Bm    G    D    A   Bm    A    G
e|---2---------2----3----2---------2---------3------------|
B|---3----2----3----0----3----2----3----2----0------------|
G|---2----2----4----0----2----2----4----2----0------------|
D|---0----2----4----0----0----2----4----2----0------------|
A|-------------2----2--------------2---------2------------|
E|------------------3------------------------3------------|
 ...rains came turnin' us...

Main Riff:
e|----------------------------------------------------------------------|
B|----------------------------------------------10----------------------|
G|-/11--11--10\-/11--10--9--10/11--------7-9/11----9/11--9\----6h7-6----|
D|----------------------------------7h9------------------------------9\-|
A|----------------------------------------------------------------------|
E|----------------------------------------------------------------------|


       
            
Submit corrections

comments powered by Disqus
↑ Back to top | Virginia Coalition Tabs for Green And Grey. Lyrics for acoustic guitar and electric guitar. Tablatures and chords are parodies/interpretations of the original songs. You may use it for private study, scholarship, research or language learning purposes only