» » »

Cannibal Tabs (ver.2)

Artists:  A B C D E F G H I J K L M N O P Q R S T U V W X Y Z # 

Cannibal Tabs (ver.2)

Veto
Rating:
0/5 (0 votes)

Hard to play? Try these video lessons and learn fast.
                -------------------------------------------------------------------------------
                             SONG NAME - Band Name
-------------------------------------------------------------------------------

Tuning:

I haven't wrote how many times you have to strum these chords, so listen to the track for timing

Riff A
e|---------------------------------------------------------------------------|
B|---------------------------------------------------------------------------|
G|---------------------------------------------------------------------------|
D|--11---9---11---9---7---7/9---9--------------------------------------------|
A|---x---x---x----x---x---x-x---9--------------------------------------------|
E|---9---7---9----7---5---5/7---7--------------------------------------------|

Riff B

e|--------------------------------------------------------------------------|
B|--------------------------------------------------------------------------|
G|--------------------------------------------------------------------------|
D|----6-6-6-----4-4-4/7-7---------------------------------------------------|
A|-----------6--------------------------------------------------------------|
E|--------------------------------------------------------------------------|

00:00 - 02:35 Riff A
02:36 - 03:10 Riff B
03:11 - 03:45 Riff A
03:45 - to end Riff B

Thats pretty much it i guess... please rate

This was my first Tab

| /  slide up
| \  slide down
| h  hammer-on
| p  pull-off
| ~  vibrato
| +  harmonic
| x  Mute note
===============================================================================
            
Hard to play? Try these video lessons and learn fast. | Correct




comments powered by Disqus
↑ Back to top | Tablatures and chords are parodies/interpretations of the original songs. You may use it for private study, scholarship, research or language learning purposes only