>
 >
Swedish Fish

Swedish Fish Guitar Tabs

Veruca Salt - Swedish Fish chords, tabs, tablatures, lyrics

Guitar lessons | Add/correct | Request | Top 50 tabs Artists:  A B C D E F G H I J K L M N O P Q R S T U V W X Y Z 0-9

Swedish Fish Guitar Tabs – Veruca Salt

CD, Sheet music, Poster

Do you like Swedish Fish? Share with your friends now
Tabs
-----------------------------------------------------------------------
                             SONG NAME - Band Name
-----------------------------------------------------------------------
Tuning: standard
Heavy distortion


Green    or    red         goodnight      remember
e|----------------------------------------------------------------------|
B|----------------------------------------------------------------------|
G|----------------------------------------------------------------------|
D|------------------1---1-1----1----------------------------------------|
A|--5----5----55-/--1---1-1----1----3----33----33--5--5--5--5--5--5--55-|
E|--3----3----33--------------------1----11----11--3--3--3--3--3--3--33-|


   Is best          of all         the flavors
e|----------------------------------------------------------------------|
B|----------------------------------------------------------------------|
G|----------------------------------------------------------------------|
D|----1---1-1---1-1-----------------------------------------------------|
A|--/-1---1-1---1-1---3---33---33----5--5--5--5--5--5--55---------------|
E|--------------------1---11---11----3--3--3--3--3--3--33---------------|


     Go ahead      it's on—ly     water          I love my Swedish fish
e|----------------------------------------------------------------------|
B|----------------------------------------------------------------------|
G|----------------------------------------------------------------------|
D|----1---1-1---1-1---------------------------------------33—1-1--------|
A|--/-1---1-1---1-1---3---33---33----6---6---6---6-/-88---33—1-1--444---|
E|--------------------1---11---11----4---4---4---4-/-66-----------222---|


 I love my Swedish fish  I love my Swedish fish he's my secret wish
e|---------------------------------------------------------------------|
B|---------------------------------------------------------------------|
G|---------------------------------------------------------------------|
D|--------33---1-1--------------33---1-1------------------6------------|
A|-/-88---33---1-1--444-/--88---33---1-1--444---33---55---6------------|
E|-/-66-------------222-/--66-------------222---11---33----------------|

 Talk to me       I need      attention
e|---------------------------------------------------------------------|
B|---------------------------------------------------------------------|
G|---------------------------------------------------------------------|
D|--------------1---1-1---1-1------------------------------------------|
A|-5---5---55-/-1---1-1---1-1---3---33---33---5--5--5--5--5--5--55-----|
E|-3---3---33-------------------1---11---11---3--3--3--3--3--3--33-----|


   Tell me all     of your       confessions        tell
e|---------------------------------------------------------------------|
B|---------------------------------------------------------------------|
G|---------------------------------------------------------------------|
D|---1---1-1---1-1-----------------------------------------------------|
A|-/-1---1-1---1-1---3---33---33---5--5--5--5--5--5--55----------------|
E|-------------------1---11---11---3--3--3--3--3--3--33----------------|


  Me if               I cease     dimension     I love my Swedish fish
e|---------------------------------------------------------------------|
B|---------------------------------------------------------------------|
G|---------------------------------------------------------------------|
D|---1---1-1---1-1---------------------------------------33--1-1-------|
A|-/-1---1-1---1-1---3---33---33---6---6---6---6-/--88---33--1-1--444--|
E|-------------------1---11---11---4---4---4---4-/--66------------222--|

 I love my Swedish fish   I love my Swedish fish he's my pisces gift
e|----------------------------------------------------------------------|
B|----------------------------------------------------------------------|
G|----------------------------------------------------------------------|
D|--------33---1-1----------------33---1-1------------------1--1-1--1-1-|
A|-/-88---33---1-1---444--/--88---33---1-1---444---33---55--1--1-1--1-1-|
E|-/-66--------------222--/--66--------------222---11---33--------------|


   I'm never          coming back  I am   too    far gone           won't you be heading this way
e|---------------------------------------------------------------------|
B|---------------------------------------------------------------------|
G|---------------------------------------------------------------------|
D|------------8--8--88-------------------------------------8--8--88----|
A|-6--6--66---6--6--66--8--8--88---5--5--5--5---6--6--66---6--6--66----|
E|-4--4--44-------------6--6--66---3--3--3--3---4--4--44---------------|

 Before       too       long  I'm holding on     to you
e|---------------------------------------------------------------------|
B|---------------------------------------------------------------------|
G|---------------------------------------------------------------------|
D|---------------------------------1-----------------------------------|
A|-8---8---88---5--5--5--5----65---1-----------------------------------|
E|-6---6---66---3--3--3--3----43---------------------------------------|

e|---------------------------------------------------------------------|
B|---------------------------------------------------------------------|
G|---------------------------------------------------------------------|
D|---------------1--1--1--1--------------------------------------------|
A|-5--5--5--5--/-1--1--1--1--3--3--33---5--5--5--5---5--5--55----------|
E|-3--3--3--3----------------1--1--11---3--3--3--3---3--3--33----------|

e|----------------------------------------------------------------------|
B|----------------------------------------------------------------------|
G|----------------------------------------------------------------------|
D|-1--1---1-1----------------------------------------1---1-1---1-1------|
A|-1--1—--1-1---3---33---33---5--5--5--5--5--5--55---1---1-1---1-1------|
E|--------------1---11---11---3--3--3--3--3--3--33----------------------|


                         I love my Swedish fish   I love my Swedish
e|----------------------------------------------------------------------|
B|----------------------------------------------------------------------|
G|----------------------------------------------------------------------|
D|---------------------------------33---1-1---------------33---1-1------|
A|-3---33---33---6--6--6--6-/-88---33---1-1---444-/--88---33---1-1------|
E|-1---11---11---4--4--4--4-/-66--------------222-/--66-----------------|

Fish        I love my Swedish fish  he's my secret wish
e|---------------------------------------------------------------------|
B|---------------------------------------------------------------------|
G|---------------------------------------------------------------------|
D|--------------33---1-1-------------1---1-1---1-1---------------------|
A|-444-/---88---33---1-1---33---55---1---1-1---1-1---------------------|
E|-222-/---66--------------11---33-------------------------------------|

I love my Swedish fish   I love my Swedish fish    I love my Swedish fish
e|----------------------------------------------------------------------|
B|----------------------------------------------------------------------|
G|----------------------------------------------------------------------|
D|-------33---1-1---------------33---1-1---------------33---1-1---------|
A|--88---33---1-1---444-/--88---33---1-1---444-/--88---33---1-1---444---|
E|--66--------------222-/--66--------------222-/--66--------------222---|

He's my favorite gift
e|---------------------------------------------------------------------|
B|---------------------------------------------------------------------|
G|---------------------------------------------------------------------|
D|------------6--------------------------------------------------------|
A|--33---55---6--------------------------------------------------------|
E|--11---33------------------------------------------------------------|





Comments


Popular Veruca Salt tabs & chords
One More Page Of Insincerity Chords
Seether Chords
Celebrate You Tabs
Fly 1 Tabs
Number One Blind Tabs
Seether 1 Tabs
Shimmer 1 Tabs
Twinstar 1 Tabs
Yeah Man Tabs
Never Met Her Ukulele


Song lyrics



↑ Back to top | Tablatures and chords are parodies/interpretations of the original songs. You may use it for private study, scholarship, research or language learning purposes only
© 2014 AZChords.com Contact us | Privacy policy | DMCA | Add/correct tabs | Request tabs | Top 50 tabs