» » »

Veruca Salt, Officially Dead Tabs (ver.1)

Artists:  A B C D E F G H I J K L M N O P Q R S T U V W X Y Z # 

Officially Dead Tabs (ver.1)

Veruca Salt Tabs
 Rating:
4/5 (4 votes)
Officially Dead lessons Tabs too difficult? Try these video lessons and learn fast
                -------------------------------------------------------------------------------
                            OFFICIALLY DEAD  - Veruca Salt
-------------------------------------------------------------------------------

Tuning: Drop D
Capo on 4th fret if you want. It's not written relative to the capo though.


Intro/Chorus
e|------------------|-------------------|
B|------------------|-------------------|
G|----------9-9-9-9-|-------------------|
D|-6-6-8-6--9-9-9-9-|-6-6-8-6-----------|
A|-6-6-8-6--7-7-7-7-|-6-6-8-6--5p4--7p6-|
D|-6-6-6-6--7-7-7-7-|-6-6-6-6--5p4--7p6-|

Verses
e|-4-|------------|
B|-4-|------------|
G|-4-|------------|
D|---|--66666666--|
A|---|--66666666--|
E|---|--66666666--|

Bridge
e|---------------------------------------------|-|
B|---------------------------------------------|-|
G|----------77777777-1212121212121212----------|.|
D|-77777777-77777777-1212121212121212-55555555-|.|
A|-77777777-55555555-1010101010101010-55555555-|-|
E|-77777777---------------------------55555555-|-|

e|-----------------------------------------|
b|-----------------------------------------|
G|----------77777777-1212121212121212------|
D|-77777777-77777777-1212121212121212-13\--|
A|-77777777-55555555-1010101010101010-11\--|
E|-77777777--------------------------------|

Slide before final chorus ('want me back in your bed')
e|--------|
b|--------|
g|--------|
d|-6/14\6-|
a|-4/12\4-|
E|--------|

Interlude between final chorus'
e|---------------------------------------------------------------------------------|
B|---------------------------------------------------------------------------------|
G|----------99999999-----------99999999----------99999999--------------------------|
D|-66666666-99999999-666666666-99999999-66666666-99999999-66666666-----------------|
A|-66666666-77777777-666666666-77777777-66666666-77777777-66666666-5/4-7/6-5/4-7/6-|
E|-66666666-77777777-666666666-77777777-66666666-77777777-66666666-5/4-7/6-5/4-7/6-|
PM ........ ........ ......... ........ ........ ........ ........

Lead during final chorus (listen for the change - second bit is very fast)
e|-----------|------------------|
b|-10^--10p7-|-17^-17p14--------|
g|-----------|----------16p14---|
d|-----------|---------------16-|
a|-----------|------------------|
E|-----------|------------------|


| /  slide up
| \  slide down
| h  hammer-on
| p  pull-off
| ~  vibrato
| +  harmonic
| x  Mute note
===============================================================================
            
Submit corrections

comments powered by Disqus
↑ Back to top | Veruca Salt Tabs for Officially Dead. Lyrics for acoustic guitar and electric guitar. Tablatures and chords are parodies/interpretations of the original songs. You may use it for private study, scholarship, research or language learning purposes only